  0
SECTION
  2
HEADER
  9
$ACADVER
  1
AC1015
  9
$ACADMAINTVER
 70
     6
  9
$DWGCODEPAGE
  3
ANSI_1254
  9
$INSBASE
 10
0.0
 20
0.0
 30
0.0
  9
$EXTMIN
 10
0.0
 20
0.0
 30
0.0
  9
$EXTMAX
 10
279.4
 20
215.9
 30
0.0
  9
$LIMMIN
 10
0.0
 20
0.0
  9
$LIMMAX
 10
279.4
 20
215.9
  9
$ORTHOMODE
 70
     0
  9
$REGENMODE
 70
     1
  9
$FILLMODE
 70
     1
  9
$QTEXTMODE
 70
     0
  9
$MIRRTEXT
 70
     1
  9
$LTSCALE
 40
1.0
  9
$ATTMODE
 70
     1
  9
$TEXTSIZE
 40
3.5
  9
$TRACEWID
 40
1.0
  9
$TEXTSTYLE
  7
Standard
  9
$CLAYER
  8
0
  9
$CELTYPE
  6
ByLayer
  9
$CECOLOR
 62
   256
  9
$CELTSCALE
 40
1.0
  9
$DISPSILH
 70
     0
  9
$DIMSCALE
 40
1.0
  9
$DIMASZ
 40
3.5
  9
$DIMEXO
 40
1.0
  9
$DIMDLI
 40
3.75
  9
$DIMRND
 40
0.0
  9
$DIMDLE
 40
0.0
  9
$DIMEXE
 40
1.0
  9
$DIMTP
 40
0.0
  9
$DIMTM
 40
0.0
  9
$DIMTXT
 40
3.5
  9
$DIMCEN
 40
2.5
  9
$DIMTSZ
 40
0.0
  9
$DIMTOL
 70
     0
  9
$DIMLIM
 70
     0
  9
$DIMTIH
 70
     1
  9
$DIMTOH
 70
     1
  9
$DIMSE1
 70
     0
  9
$DIMSE2
 70
     0
  9
$DIMTAD
 70
     1
  9
$DIMZIN
 70
     0
  9
$DIMBLK
  1

  9
$DIMASO
 70
     1
  9
$DIMSHO
 70
     1
  9
$DIMPOST
  1

  9
$DIMAPOST
  1

  9
$DIMALT
 70
     0
  9
$DIMALTD
 70
     3
  9
$DIMALTF
 40
0.0393700787
  9
$DIMLFAC
 40
1.0
  9
$DIMTOFL
 70
     1
  9
$DIMTVP
 40
0.0
  9
$DIMTIX
 70
     0
  9
$DIMSOXD
 70
     0
  9
$DIMSAH
 70
     0
  9
$DIMBLK1
  1

  9
$DIMBLK2
  1

  9
$DIMSTYLE
  2
ISO-25
  9
$DIMCLRD
 70
     0
  9
$DIMCLRE
 70
     0
  9
$DIMCLRT
 70
     0
  9
$DIMTFAC
 40
1.0
  9
$DIMGAP
 40
1.524
  9
$DIMJUST
 70
     0
  9
$DIMSD1
 70
     0
  9
$DIMSD2
 70
     0
  9
$DIMTOLJ
 70
     0
  9
$DIMTZIN
 70
     0
  9
$DIMALTZ
 70
     0
  9
$DIMALTTZ
 70
     0
  9
$DIMUPT
 70
     0
  9
$DIMDEC
 70
     2
  9
$DIMTDEC
 70
     2
  9
$DIMALTU
 70
     2
  9
$DIMALTTD
 70
     3
  9
$DIMTXSTY
  7
Standard
  9
$DIMAUNIT
 70
     0
  9
$DIMADEC
 70
     2
  9
$DIMALTRND
 40
0.0
  9
$DIMAZIN
 70
     0
  9
$DIMDSEP
 70
    44
  9
$DIMATFIT
 70
     3
  9
$DIMFRAC
 70
     0
  9
$DIMLDRBLK
  1

  9
$DIMLUNIT
 70
     2
  9
$DIMLWD
 70
    -2
  9
$DIMLWE
 70
    -2
  9
$DIMTMOVE
 70
     0
  9
$LUNITS
 70
     2
  9
$LUPREC
 70
     2
  9
$SKETCHINC
 40
1.0
  9
$FILLETRAD
 40
10.0
  9
$AUNITS
 70
     0
  9
$AUPREC
 70
     2
  9
$MENU
  1
.
  9
$ELEVATION
 40
0.0
  9
$PELEVATION
 40
0.0
  9
$THICKNESS
 40
0.0
  9
$LIMCHECK
 70
     0
  9
$CHAMFERA
 40
0.0
  9
$CHAMFERB
 40
0.0
  9
$CHAMFERC
 40
0.0
  9
$CHAMFERD
 40
0.0
  9
$SKPOLY
 70
     0
  9
$TDCREATE
 40
2459935.710523287
  9
$TDUCREATE
 40
2459935.585523287
  9
$TDUPDATE
 40
2459935.710523461
  9
$TDUUPDATE
 40
2459935.585523461
  9
$TDINDWG
 40
0.0000000116
  9
$TDUSRTIMER
 40
0.0000000116
  9
$USRTIMER
 70
     1
  9
$ANGBASE
 50
0.0
  9
$ANGDIR
 70
     0
  9
$PDMODE
 70
     0
  9
$PDSIZE
 40
-1.0
  9
$PLINEWID
 40
0.0
  9
$SPLFRAME
 70
     0
  9
$SPLINETYPE
 70
     6
  9
$SPLINESEGS
 70
     8
  9
$HANDSEED
  5
12C
  9
$SURFTAB1
 70
     6
  9
$SURFTAB2
 70
     6
  9
$SURFTYPE
 70
     6
  9
$SURFU
 70
     6
  9
$SURFV
 70
     6
  9
$UCSBASE
  2

  9
$UCSNAME
  2

  9
$UCSORG
 10
0.0
 20
0.0
 30
0.0
  9
$UCSXDIR
 10
1.0
 20
0.0
 30
0.0
  9
$UCSYDIR
 10
0.0
 20
1.0
 30
0.0
  9
$UCSORTHOREF
  2

  9
$UCSORTHOVIEW
 70
     0
  9
$UCSORGTOP
 10
0.0
 20
0.0
 30
0.0
  9
$UCSORGBOTTOM
 10
0.0
 20
0.0
 30
0.0
  9
$UCSORGLEFT
 10
0.0
 20
0.0
 30
0.0
  9
$UCSORGRIGHT
 10
0.0
 20
0.0
 30
0.0
  9
$UCSORGFRONT
 10
0.0
 20
0.0
 30
0.0
  9
$UCSORGBACK
 10
0.0
 20
0.0
 30
0.0
  9
$PUCSBASE
  2

  9
$PUCSNAME
  2

  9
$PUCSORG
 10
0.0
 20
0.0
 30
0.0
  9
$PUCSXDIR
 10
1.0
 20
0.0
 30
0.0
  9
$PUCSYDIR
 10
0.0
 20
1.0
 30
0.0
  9
$PUCSORTHOREF
  2

  9
$PUCSORTHOVIEW
 70
     0
  9
$PUCSORGTOP
 10
0.0
 20
0.0
 30
0.0
  9
$PUCSORGBOTTOM
 10
0.0
 20
0.0
 30
0.0
  9
$PUCSORGLEFT
 10
0.0
 20
0.0
 30
0.0
  9
$PUCSORGRIGHT
 10
0.0
 20
0.0
 30
0.0
  9
$PUCSORGFRONT
 10
0.0
 20
0.0
 30
0.0
  9
$PUCSORGBACK
 10
0.0
 20
0.0
 30
0.0
  9
$USERI1
 70
     0
  9
$USERI2
 70
     0
  9
$USERI3
 70
     0
  9
$USERI4
 70
     0
  9
$USERI5
 70
     0
  9
$USERR1
 40
0.0
  9
$USERR2
 40
0.0
  9
$USERR3
 40
0.0
  9
$USERR4
 40
0.0
  9
$USERR5
 40
0.0
  9
$WORLDVIEW
 70
     1
  9
$SHADEDGE
 70
     3
  9
$SHADEDIF
 70
    70
  9
$TILEMODE
 70
     1
  9
$MAXACTVP
 70
    64
  9
$PINSBASE
 10
0.0
 20
0.0
 30
0.0
  9
$PLIMCHECK
 70
     0
  9
$PEXTMIN
 10
1.0000000000E+20
 20
1.0000000000E+20
 30
1.0000000000E+20
  9
$PEXTMAX
 10
-1.0000000000E+20
 20
-1.0000000000E+20
 30
-1.0000000000E+20
  9
$PLIMMIN
 10
0.0
 20
0.0
  9
$PLIMMAX
 10
420.0
 20
297.0
  9
$UNITMODE
 70
     0
  9
$VISRETAIN
 70
     1
  9
$PLINEGEN
 70
     0
  9
$PSLTSCALE
 70
     1
  9
$TREEDEPTH
 70
  3020
  9
$CMLSTYLE
  2
Standard
  9
$CMLJUST
 70
     0
  9
$CMLSCALE
 40
20.0
  9
$PROXYGRAPHICS
 70
     1
  9
$MEASUREMENT
 70
     1
  9
$CELWEIGHT
370
    -1
  9
$ENDCAPS
280
     0
  9
$JOINSTYLE
280
     0
  9
$LWDISPLAY
290
     1
  9
$INSUNITS
 70
     4
  9
$HYPERLINKBASE
  1

  9
$STYLESHEET
  1

  9
$XEDIT
290
     1
  9
$CEPSNTYPE
380
     0
  9
$PSTYLEMODE
290
     1
  9
$FINGERPRINTGUID
  2
{1e68bfb4-eb0d-46b3-90db-3fdf210e9325}
  9
$VERSIONGUID
  2
{FAEB1C32-E019-11D5-929B-00C0DF256EC4}
  9
$EXTNAMES
290
     1
  9
$PSVPSCALE
 40
0.0
  9
$OLESTARTUP
290
     0
  0
ENDSEC
  0
SECTION
  2
CLASSES
  0
CLASS
  1
ACDBDICTIONARYWDFLT
  2
AcDbDictionaryWithDefault
  3
ObjectDBX Classes
 90
        0
280
     0
281
     0
  0
CLASS
  1
VISUALSTYLE
  2
AcDbVisualStyle
  3
ObjectDBX Classes
 90
     4095
280
     0
281
     0
  0
CLASS
  1
MATERIAL
  2
AcDbMaterial
  3
ObjectDBX Classes
 90
     1153
280
     0
281
     0
  0
CLASS
  1
SCALE
  2
AcDbScale
  3
ObjectDBX Classes
 90
     1153
280
     0
281
     0
  0
CLASS
  1
TABLESTYLE
  2
AcDbTableStyle
  3
ObjectDBX Classes
 90
     4095
280
     0
281
     0
  0
CLASS
  1
MLEADERSTYLE
  2
AcDbMLeaderStyle
  3
ACDB_MLEADERSTYLE_CLASS
 90
     4095
280
     0
281
     0
  0
CLASS
  1
SUN
  2
AcDbSun
  3
SCENEOE
 90
     1153
280
     0
281
     0
  0
CLASS
  1
ACDBPLACEHOLDER
  2
AcDbPlaceHolder
  3
ObjectDBX Classes
 90
        0
280
     0
281
     0
  0
CLASS
  1
LAYOUT
  2
AcDbLayout
  3
ObjectDBX Classes
 90
        0
280
     0
281
     0
  0
ENDSEC
  0
SECTION
  2
TABLES
  0
TABLE
  2
VPORT
  5
8
330
0
100
AcDbSymbolTable
 70
     1
  0
VPORT
  5
29
330
8
100
AcDbSymbolTableRecord
100
AcDbViewportTableRecord
  2
*Active
 70
     0
 10
0.0
 20
0.0
 11
1.0
 21
1.0
 12
139.7
 22
107.95
 13
0.0
 23
0.0
 14
10.0
 24
10.0
 15
10.0
 25
10.0
 16
0.0
 26
0.0
 36
1.0
 17
0.0
 27
0.0
 37
0.0
 40
215.9
 41
1.2941176471
 42
50.0
 43
0.0
 44
0.0
 50
0.0
 51
0.0
 71
     0
 72
  2000
 73
     1
 74
     3
 75
     0
 76
     0
 77
     0
 78
     0
281
     0
 65
     1
110
0.0
120
0.0
130
0.0
111
1.0
121
0.0
131
0.0
112
0.0
122
1.0
132
0.0
 79
     0
146
0.0
  0
ENDTAB
  0
TABLE
  2
LTYPE
  5
5
330
0
100
AcDbSymbolTable
 70
     6
  0
LTYPE
  5
14
330
5
100
AcDbSymbolTableRecord
100
AcDbLinetypeTableRecord
  2
ByBlock
 70
     0
  3

 72
    65
 73
     0
 40
0.0
  0
LTYPE
  5
15
330
5
100
AcDbSymbolTableRecord
100
AcDbLinetypeTableRecord
  2
ByLayer
 70
     0
  3

 72
    65
 73
     0
 40
0.0
  0
LTYPE
  5
16
330
5
100
AcDbSymbolTableRecord
100
AcDbLinetypeTableRecord
  2
Continuous
 70
     0
  3
Solid line
 72
    65
 73
     0
 40
0.0
  0
LTYPE
  5
6E
330
5
100
AcDbSymbolTableRecord
100
AcDbLinetypeTableRecord
  2
HIDDEN
 70
     0
  3
Hidden __ __ __ __ __ __ __ __ __ __ __ __ __ __
 72
    65
 73
     2
 40
1.905
 49
1.27
 74
     0
 49
-0.635
 74
     0
  0
LTYPE
  5
6F
330
5
100
AcDbSymbolTableRecord
100
AcDbLinetypeTableRecord
  2
PHANTOM
 70
     0
  3
Phantom ______  __  __  ______  __  __  ______
 72
    65
 73
     6
 40
12.7
 49
6.35
 74
     0
 49
-1.27
 74
     0
 49
1.27
 74
     0
 49
-1.27
 74
     0
 49
1.27
 74
     0
 49
-1.27
 74
     0
  0
LTYPE
  5
70
330
5
100
AcDbSymbolTableRecord
100
AcDbLinetypeTableRecord
  2
CENTER
 70
     0
  3
Center ____ _ ____ _ ____ _ ____ _ ____ _ ____
 72
    65
 73
     4
 40
10.16
 49
6.35
 74
     0
 49
-1.27
 74
     0
 49
1.27
 74
     0
 49
-1.27
 74
     0
  0
LTYPE
  5
71
330
5
100
AcDbSymbolTableRecord
100
AcDbLinetypeTableRecord
  2
CENTERX2
 70
     0
  3
Center (2x) ________  __  ________  __  _____
 72
    65
 73
     4
 40
20.32
 49
12.7
 74
     0
 49
-2.54
 74
     0
 49
2.54
 74
     0
 49
-2.54
 74
     0
  0
LTYPE
  5
72
330
5
100
AcDbSymbolTableRecord
100
AcDbLinetypeTableRecord
  2
DOT2
 70
     0
  3
Dot (.5x) ........................................
 72
    65
 73
     2
 40
0.635
 49
0.0
 74
     0
 49
-0.635
 74
     0
  0
ENDTAB
  0
TABLE
  2
LAYER
  5
2
330
0
100
AcDbSymbolTable
 70
    17
  0
LAYER
  5
10
330
2
100
AcDbSymbolTableRecord
100
AcDbLayerTableRecord
  2
0
 70
     0
 62
     7
  6
Continuous
370
    -3
390
F
  0
LAYER
  5
73
330
2
100
AcDbSymbolTableRecord
100
AcDbLayerTableRecord
  2
FORMAT
 70
     0
 62
     7
  6
Continuous
370
    -3
390
F
  0
LAYER
  5
74
330
2
100
AcDbSymbolTableRecord
100
AcDbLayerTableRecord
  2
YARDIMCI_GEOMETRI
 70
     0
 62
    -6
  6
Continuous
290
     0
370
    -3
390
F
  0
LAYER
  5
75
330
2
100
AcDbSymbolTableRecord
100
AcDbLayerTableRecord
  2
SAYFA_CERCEVESI
 70
     0
 62
     7
  6
Continuous
370
    25
390
F
  0
LAYER
  5
76
330
2
100
AcDbSymbolTableRecord
100
AcDbLayerTableRecord
  2
ANTET
 70
     0
 62
     7
  6
Continuous
370
    -3
390
F
  0
LAYER
  5
77
330
2
100
AcDbSymbolTableRecord
100
AcDbLayerTableRecord
  2
OLCU
 70
     0
 62
   150
  6
Continuous
370
    -3
390
F
  0
LAYER
  5
78
330
2
100
AcDbSymbolTableRecord
100
AcDbLayerTableRecord
  2
METIN
 70
     0
 62
    96
  6
Continuous
370
    -3
390
F
  0
LAYER
  5
79
330
2
100
AcDbSymbolTableRecord
100
AcDbLayerTableRecord
  2
BALON
 70
     0
 62
     5
  6
Continuous
370
    -3
390
F
  0
LAYER
  5
7A
330
2
100
AcDbSymbolTableRecord
100
AcDbLayerTableRecord
  2
VURGU
 70
     0
 62
     7
  6
Continuous
370
    -3
390
F
  0
LAYER
  5
7B
330
2
100
AcDbSymbolTableRecord
100
AcDbLayerTableRecord
  2
SILIK
 70
     0
 62
     7
  6
Continuous
370
    -3
390
F
  0
LAYER
  5
7C
330
2
100
AcDbSymbolTableRecord
100
AcDbLayerTableRecord
  2
MODEL
 70
     0
 62
     7
  6
Continuous
370
    -3
390
F
  0
LAYER
  5
7D
330
2
100
AcDbSymbolTableRecord
100
AcDbLayerTableRecord
  2
DETAYLANDıRMA
 70
     0
 62
   190
  6
Continuous
370
    -3
390
F
  0
LAYER
  5
7E
330
2
100
AcDbSymbolTableRecord
100
AcDbLayerTableRecord
  2
TOLERANS
 70
     0
 62
   230
  6
Continuous
370
    -3
390
F
  0
LAYER
  5
7F
330
2
100
AcDbSymbolTableRecord
100
AcDbLayerTableRecord
  2
MERKEZ_CIZGILERI
 70
     0
 62
    30
  6
Continuous
370
    -3
390
F
  0
LAYER
  5
80
330
2
100
AcDbSymbolTableRecord
100
AcDbLayerTableRecord
  2
KESIT-DETAY_CIZGILERI
 70
     0
 62
     7
  6
Continuous
370
    -3
390
F
  0
LAYER
  5
81
330
2
100
AcDbSymbolTableRecord
100
AcDbLayerTableRecord
  2
\U+041E\U+0421\U+0415\U+0412\U+042B\U+0415
 70
     0
 62
     7
  6
Continuous
370
    -3
390
F
  0
LAYER
  5
82
330
2
100
AcDbSymbolTableRecord
100
AcDbLayerTableRecord
  2
\U+0412\U+041E\U+0414\U+042F\U+041D\U+042B\U+0415_\U+0417\U+041D\U+0410\U+041A\U+0418
 70
     0
 62
    11
  6
Continuous
370
    -3
390
F
  0
ENDTAB
  0
TABLE
  2
STYLE
  5
3
330
0
100
AcDbSymbolTable
 70
     1
  0
STYLE
  5
11
330
3
100
AcDbSymbolTableRecord
100
AcDbTextStyleTableRecord
  2
Standard
 70
     0
 40
0.0
 41
1.0
 50
0.0
 71
     0
 42
3.5
  3
txt
  4

  0
ENDTAB
  0
TABLE
  2
VIEW
  5
6
330
0
100
AcDbSymbolTable
 70
     0
  0
ENDTAB
  0
TABLE
  2
UCS
  5
7
330
0
100
AcDbSymbolTable
 70
     0
  0
ENDTAB
  0
TABLE
  2
APPID
  5
9
330
0
100
AcDbSymbolTable
 70
     1
  0
APPID
  5
12
330
9
100
AcDbSymbolTableRecord
100
AcDbRegAppTableRecord
  2
ACAD
 70
     0
  0
ENDTAB
  0
TABLE
  2
DIMSTYLE
  5
A
330
0
100
AcDbSymbolTable
 70
     1
100
AcDbDimStyleTable
  0
DIMSTYLE
105
27
330
A
100
AcDbSymbolTableRecord
100
AcDbDimStyleTableRecord
  2
ISO-25
 70
     0
 41
2.5
 42
0.625
 43
3.75
 44
1.25
 73
     0
 74
     0
 77
     1
 78
     8
140
2.5
141
2.5
143
0.0393700787
147
0.625
171
     3
172
     1
178
     0
271
     2
272
     2
274
     3
278
    44
283
     0
284
     8
340
11
  0
ENDTAB
  0
TABLE
  2
BLOCK_RECORD
  5
1
330
0
100
AcDbSymbolTable
 70
     4
  0
BLOCK_RECORD
  5
1F
330
1
100
AcDbSymbolTableRecord
100
AcDbBlockTableRecord
  2
*Model_Space
340
22
  0
BLOCK_RECORD
  5
1B
330
1
100
AcDbSymbolTableRecord
100
AcDbBlockTableRecord
  2
*Paper_Space
340
1E
  0
BLOCK_RECORD
  5
23
330
1
100
AcDbSymbolTableRecord
100
AcDbBlockTableRecord
  2
*Paper_Space0
340
26
  0
BLOCK_RECORD
  5
93
330
1
100
AcDbSymbolTableRecord
100
AcDbBlockTableRecord
  2
SW_CENTERMARKSYMBOL_0
340
0
102
{BLKREFS
331
9E
102
}
  0
BLOCK_RECORD
  5
E9
330
1
100
AcDbSymbolTableRecord
100
AcDbBlockTableRecord
  2
SW_CENTERMARKSYMBOL_1
340
0
102
{BLKREFS
331
F4
102
}
  0
BLOCK_RECORD
  5
F5
330
1
100
AcDbSymbolTableRecord
100
AcDbBlockTableRecord
  2
SW_CENTERMARKSYMBOL_2
340
0
102
{BLKREFS
331
100
102
}
  0
ENDTAB
  0
ENDSEC
  0
SECTION
  2
BLOCKS
  0
BLOCK
  5
20
330
1F
100
AcDbEntity
  8
0
100
AcDbBlockBegin
  2
*Model_Space
 70
     0
 10
0.0
 20
0.0
 30
0.0
  3
*Model_Space
  1

  0
ENDBLK
  5
21
330
1F
100
AcDbEntity
  8
0
100
AcDbBlockEnd
  0
BLOCK
  5
1C
330
1B
100
AcDbEntity
 67
     1
  8
0
100
AcDbBlockBegin
  2
*Paper_Space
 70
     0
 10
0.0
 20
0.0
 30
0.0
  3
*Paper_Space
  1

  0
ENDBLK
  5
1D
330
1B
100
AcDbEntity
 67
     1
  8
0
100
AcDbBlockEnd
  0
BLOCK
  5
24
330
23
100
AcDbEntity
  8
0
100
AcDbBlockBegin
  2
*Paper_Space0
 70
     0
 10
0.0
 20
0.0
 30
0.0
  3
*Paper_Space0
  1

  0
ENDBLK
  5
25
330
23
100
AcDbEntity
  8
0
100
AcDbBlockEnd
  0
BLOCK
  5
94
330
93
100
AcDbEntity
  8
0
100
AcDbBlockBegin
  2
SW_CENTERMARKSYMBOL_0
 70
     0
 10
0.0
 20
0.0
 30
0.0
  3
SW_CENTERMARKSYMBOL_0
  1

  0
LINE
  5
96
330
93
100
AcDbEntity
  8
FORMAT
 62
     0
100
AcDbLine
 10
0.0
 20
0.0
 30
0.0
 11
0.0
 21
2.5
 31
0.0
  0
LINE
  5
97
330
93
100
AcDbEntity
  8
FORMAT
 62
     0
100
AcDbLine
 10
0.0
 20
0.0
 30
0.0
 11
-2.5
 21
0.0
 31
0.0
  0
LINE
  5
98
330
93
100
AcDbEntity
  8
FORMAT
 62
     0
100
AcDbLine
 10
0.0
 20
0.0
 30
0.0
 11
0.0
 21
-2.5
 31
0.0
  0
LINE
  5
99
330
93
100
AcDbEntity
  8
FORMAT
 62
     0
100
AcDbLine
 10
0.0
 20
0.0
 30
0.0
 11
2.5
 21
0.0
 31
0.0
  0
LINE
  5
9A
330
93
100
AcDbEntity
  8
FORMAT
 62
     0
100
AcDbLine
 10
0.0
 20
5.0
 30
0.0
 11
0.0
 21
402.5
 31
0.0
  0
LINE
  5
9B
330
93
100
AcDbEntity
  8
FORMAT
 62
     0
100
AcDbLine
 10
-5.0
 20
0.0
 30
0.0
 11
-402.5
 21
0.0
 31
0.0
  0
LINE
  5
9C
330
93
100
AcDbEntity
  8
FORMAT
 62
     0
100
AcDbLine
 10
0.0
 20
-5.0
 30
0.0
 11
0.0
 21
-402.5
 31
0.0
  0
LINE
  5
9D
330
93
100
AcDbEntity
  8
FORMAT
 62
     0
100
AcDbLine
 10
5.0
 20
0.0
 30
0.0
 11
402.5
 21
0.0
 31
0.0
  0
ENDBLK
  5
95
330
93
100
AcDbEntity
  8
0
100
AcDbBlockEnd
  0
BLOCK
  5
EA
330
E9
100
AcDbEntity
  8
0
100
AcDbBlockBegin
  2
SW_CENTERMARKSYMBOL_1
 70
     0
 10
0.0
 20
0.0
 30
0.0
  3
SW_CENTERMARKSYMBOL_1
  1

  0
LINE
  5
EC
330
E9
100
AcDbEntity
  8
FORMAT
 62
     0
100
AcDbLine
 10
0.0
 20
0.0
 30
0.0
 11
0.0
 21
2.5
 31
0.0
  0
LINE
  5
ED
330
E9
100
AcDbEntity
  8
FORMAT
 62
     0
100
AcDbLine
 10
0.0
 20
0.0
 30
0.0
 11
-2.5
 21
0.0
 31
0.0
  0
LINE
  5
EE
330
E9
100
AcDbEntity
  8
FORMAT
 62
     0
100
AcDbLine
 10
0.0
 20
0.0
 30
0.0
 11
0.0
 21
-2.5
 31
0.0
  0
LINE
  5
EF
330
E9
100
AcDbEntity
  8
FORMAT
 62
     0
100
AcDbLine
 10
0.0
 20
0.0
 30
0.0
 11
2.5
 21
0.0
 31
0.0
  0
LINE
  5
F0
330
E9
100
AcDbEntity
  8
FORMAT
 62
     0
100
AcDbLine
 10
0.0
 20
5.0
 30
0.0
 11
0.0
 21
9.5
 31
0.0
  0
LINE
  5
F1
330
E9
100
AcDbEntity
  8
FORMAT
 62
     0
100
AcDbLine
 10
-5.0
 20
0.0
 30
0.0
 11
-9.5
 21
0.0
 31
0.0
  0
LINE
  5
F2
330
E9
100
AcDbEntity
  8
FORMAT
 62
     0
100
AcDbLine
 10
0.0
 20
-5.0
 30
0.0
 11
0.0
 21
-9.5
 31
0.0
  0
LINE
  5
F3
330
E9
100
AcDbEntity
  8
FORMAT
 62
     0
100
AcDbLine
 10
5.0
 20
0.0
 30
0.0
 11
9.5
 21
0.0
 31
0.0
  0
ENDBLK
  5
EB
330
E9
100
AcDbEntity
  8
0
100
AcDbBlockEnd
  0
BLOCK
  5
F6
330
F5
100
AcDbEntity
  8
0
100
AcDbBlockBegin
  2
SW_CENTERMARKSYMBOL_2
 70
     0
 10
0.0
 20
0.0
 30
0.0
  3
SW_CENTERMARKSYMBOL_2
  1

  0
LINE
  5
F8
330
F5
100
AcDbEntity
  8
FORMAT
 62
     0
100
AcDbLine
 10
0.0
 20
0.0
 30
0.0
 11
0.0
 21
2.5
 31
0.0
  0
LINE
  5
F9
330
F5
100
AcDbEntity
  8
FORMAT
 62
     0
100
AcDbLine
 10
0.0
 20
0.0
 30
0.0
 11
-2.5
 21
0.0
 31
0.0
  0
LINE
  5
FA
330
F5
100
AcDbEntity
  8
FORMAT
 62
     0
100
AcDbLine
 10
0.0
 20
0.0
 30
0.0
 11
0.0
 21
-2.5
 31
0.0
  0
LINE
  5
FB
330
F5
100
AcDbEntity
  8
FORMAT
 62
     0
100
AcDbLine
 10
0.0
 20
0.0
 30
0.0
 11
2.5
 21
0.0
 31
0.0
  0
LINE
  5
FC
330
F5
100
AcDbEntity
  8
FORMAT
 62
     0
100
AcDbLine
 10
0.0
 20
5.0
 30
0.0
 11
0.0
 21
9.5
 31
0.0
  0
LINE
  5
FD
330
F5
100
AcDbEntity
  8
FORMAT
 62
     0
100
AcDbLine
 10
-5.0
 20
0.0
 30
0.0
 11
-9.5
 21
0.0
 31
0.0
  0
LINE
  5
FE
330
F5
100
AcDbEntity
  8
FORMAT
 62
     0
100
AcDbLine
 10
0.0
 20
-5.0
 30
0.0
 11
0.0
 21
-9.5
 31
0.0
  0
LINE
  5
FF
330
F5
100
AcDbEntity
  8
FORMAT
 62
     0
100
AcDbLine
 10
5.0
 20
0.0
 30
0.0
 11
9.5
 21
0.0
 31
0.0
  0
ENDBLK
  5
F7
330
F5
100
AcDbEntity
  8
0
100
AcDbBlockEnd
  0
ENDSEC
  0
SECTION
  2
ENTITIES
  0
LINE
  5
83
330
1F
100
AcDbEntity
  8
0
  6
Continuous
 62
     7
370
    25
100
AcDbLine
 10
102.6070913462
 20
590.695147859
 30
0.0
 11
102.6070913462
 21
595.8949519231
 31
0.0
  0
LINE
  5
84
330
1F
100
AcDbEntity
  8
0
  6
Continuous
 62
     7
370
    25
100
AcDbLine
 10
88.6070913462
 20
595.8949519231
 30
0.0
 11
88.6070913462
 21
589.7150110596
 31
0.0
  0
LINE
  5
85
330
1F
100
AcDbEntity
  8
0
  6
Continuous
 62
     7
370
    25
100
AcDbLine
 10
172.6070913462
 20
589.7136613738
 30
0.0
 11
172.6070913462
 21
595.8949519231
 31
0.0
  0
LINE
  5
86
330
1F
100
AcDbEntity
  8
0
  6
Continuous
 62
     7
370
    25
100
AcDbLine
 10
158.6070913462
 20
595.8949519231
 30
0.0
 11
158.6070913462
 21
590.697598684
 31
0.0
  0
CIRCLE
  5
87
330
1F
100
AcDbEntity
  8
0
  6
Continuous
 62
     7
370
    25
100
AcDbCircle
 10
130.6070913462
 20
95.8949519231
 30
0.0
 40
495.5
  0
ARC
  5
88
330
1F
100
AcDbEntity
  8
0
  6
Continuous
 62
     7
370
    25
100
AcDbCircle
 10
130.6070913462
 20
95.8949519231
 30
0.0
 40
496.5000000000011
100
AcDbArc
 50
94.8525720307
 51
180.0
  0
ARC
  5
89
330
1F
100
AcDbEntity
  8
0
  6
Continuous
 62
     7
370
    25
100
AcDbCircle
 10
130.6070913462
 20
95.8949519231
 30
0.0
 40
496.5000000000011
100
AcDbArc
 50
86.7671028926
 51
93.2328971074
  0
ARC
  5
8A
330
1F
100
AcDbEntity
  8
0
  6
Continuous
 62
     7
370
    25
100
AcDbCircle
 10
130.6070913462
 20
95.8949519231
 30
0.0
 40
496.5000000000011
100
AcDbArc
 50
180.0
 51
85.1474279693
  0
SPLINE
  5
8B
330
1F
100
AcDbEntity
  8
0
  6
Continuous
 62
     7
370
    25
100
AcDbSpline
210
0.0
220
0.0
230
1.0
 70
     8
 71
     3
 72
    15
 73
    11
 74
     0
 42
0.00000001
 43
0.00000001
 40
0.0
 40
0.0
 40
0.0
 40
0.0
 40
0.1325141366642626
 40
0.2650208072781943
 40
0.397710737503826
 40
0.5306031421856583
 40
0.6635304062694858
 40
0.7962463331868554
 40
0.928562669916087
 40
1.0
 40
1.0
 40
1.0
 40
1.0
 10
101.4041844538938
 20
590.5979612545266
 30
0.0
 10
100.8984113895905
 20
590.562983182411
 30
0.0
 10
99.88689375701644
 20
590.4930290088984
 30
0.0
 10
97.71240929037656
 20
590.3452701259021
 30
0.0
 10
95.34578273171473
 20
590.1797095413493
 30
0.0
 10
92.99639865008513
 20
590.0101851592069
 30
0.0
 10
90.93428024167311
 20
589.8580838351793
 30
0.0
 10
89.4394445562256
 20
589.7497329399672
 30
0.0
 10
88.64485570884406
 20
589.6972589605728
 30
0.0
 10
88.6895665007224
 20
589.7104027600369
 30
0.0
 10
88.70524238841404
 20
589.7150110596351
 30
0.0
  0
SPLINE
  5
8C
330
1F
100
AcDbEntity
  8
0
  6
Continuous
 62
     7
370
    25
100
AcDbSpline
210
0.0
220
0.0
230
1.0
 70
     8
 71
     3
 72
    10
 73
     6
 74
     0
 42
0.00000001
 43
0.00000001
 40
0.0
 40
0.0
 40
0.0
 40
0.0
 40
0.081470056142741
 40
0.6470625234453375
 40
1.0
 40
1.0
 40
1.0
 40
1.0
 10
102.5584069412703
 20
590.6951478589912
 30
0.0
 10
102.5739577614664
 20
590.6951741165599
 30
0.0
 10
102.6974675935951
 20
590.6953826629825
 30
0.0
 10
102.2741277488733
 20
590.6607329037853
 30
0.0
 10
101.6456657426367
 20
590.6153855841892
 30
0.0
 10
101.4041844538938
 20
590.5979612545266
 30
0.0
  0
SPLINE
  5
8D
330
1F
100
AcDbEntity
  8
0
  6
Continuous
 62
     7
370
    25
100
AcDbSpline
210
0.0
220
0.0
230
1.0
 70
     8
 71
     3
 72
    14
 73
    10
 74
     0
 42
0.00000001
 43
0.00000001
 40
0.0
 40
0.0
 40
0.0
 40
0.0
 40
0.143236132245606
 40
0.2864623681193098
 40
0.4298986141390487
 40
0.5733682485918484
 40
0.7166571299420088
 40
0.8596776108905507
 40
1.0
 40
1.0
 40
1.0
 40
1.0
 10
170.5721914645138
 20
589.8370734926092
 30
0.0
 10
169.9613536657261
 20
589.8819586611995
 30
0.0
 10
168.7397202717338
 20
589.9717258972053
 30
0.0
 10
166.4035163601973
 20
590.1416154633765
 30
0.0
 10
164.0173080314781
 20
590.3095960966195
 30
0.0
 10
161.7944540323541
 20
590.4616250427597
 30
0.0
 10
160.0227463901953
 20
590.582187456593
 30
0.0
 10
158.8310643584635
 20
590.6673476426387
 30
0.0
 10
158.6857257545762
 20
590.6875792209696
 30
0.0
 10
158.6137484356371
 20
590.6975986839835
 30
0.0
  0
SPLINE
  5
8E
330
1F
100
AcDbEntity
  8
0
  6
Continuous
 62
     7
370
    25
100
AcDbSpline
210
0.0
220
0.0
230
1.0
 70
     8
 71
     3
 72
    10
 73
     6
 74
     0
 42
0.00000001
 43
0.00000001
 40
0.0
 40
0.0
 40
0.0
 40
0.0
 40
0.3038530844732047
 40
0.7329261890682756
 40
1.0
 40
1.0
 40
1.0
 40
1.0
 10
172.5252200722747
 20
589.7136613738456
 30
0.0
 10
172.5188125766692
 20
589.7099118939801
 30
0.0
 10
172.5033570108857
 20
589.7008677468934
 30
0.0
 10
171.7210433338423
 20
589.7537643722771
 30
0.0
 10
170.8907355308004
 20
589.8139742344213
 30
0.0
 10
170.5721914645138
 20
589.8370734926092
 30
0.0
  0
CIRCLE
  5
8F
330
1F
100
AcDbEntity
  8
0
  6
Continuous
 62
     7
370
    25
100
AcDbCircle
 10
130.6070913462
 20
95.8949519231
 30
0.0
 40
400.0
  0
LINE
  5
90
330
1F
100
AcDbEntity
  8
0
  6
Continuous
 62
     7
370
    25
100
AcDbLine
 10
95.6070913462
 20
595.8949519231
 30
0.0
 11
88.6070913462
 21
595.8949519231
 31
0.0
  0
LINE
  5
91
330
1F
100
AcDbEntity
  8
0
  6
Continuous
 62
     7
370
    25
100
AcDbLine
 10
102.6070913462
 20
595.8949519231
 30
0.0
 11
95.6070913462
 21
595.8949519231
 31
0.0
  0
LINE
  5
92
330
1F
100
AcDbEntity
  8
0
  6
Continuous
 62
     7
370
    25
100
AcDbLine
 10
172.6070913462
 20
595.8949519231
 30
0.0
 11
158.6070913462
 21
595.8949519231
 31
0.0
  0
INSERT
  5
9E
330
1F
100
AcDbEntity
  8
FORMAT
 62
     7
100
AcDbBlockReference
  2
SW_CENTERMARKSYMBOL_0
 10
130.6070913462
 20
95.8949519231
 30
0.0
  0
LINE
  5
9F
330
1F
100
AcDbEntity
  8
0
  6
Continuous
 62
     7
370
    25
100
AcDbLine
 10
1366.0733512996
 20
-400.6050480769
 30
0.0
 11
1391.0733512996
 21
-400.6050480769
 31
0.0
  0
LINE
  5
A0
330
1F
100
AcDbEntity
  8
0
  6
Continuous
 62
     7
370
    25
100
AcDbLine
 10
1391.0733512996
 20
592.3949519231
 30
0.0
 11
1366.0733512996
 21
592.3949519231
 31
0.0
  0
LINE
  5
A1
330
1F
100
AcDbEntity
  8
0
  6
Continuous
 62
     7
370
    25
100
AcDbLine
 10
1638.5733512996
 20
591.3949519231
 30
0.0
 11
1633.5733512996
 21
591.4349484687
 31
0.0
  0
ARC
  5
A2
330
1F
100
AcDbEntity
  8
0
  6
Continuous
 62
     7
370
    25
100
AcDbCircle
 10
1391.0733512996
 20
-30036.2300480776
 30
0.0
 40
30628.62500000072
100
AcDbArc
 50
89.5725499573
 51
90.0
  0
ARC
  5
A3
330
1F
100
AcDbEntity
  8
0
  6
Continuous
 62
     7
370
    25
100
AcDbCircle
 10
1391.0733512996
 20
30228.0199519238
 30
0.0
 40
30628.62500000072
100
AcDbArc
 50
270.0
 51
270.4629936787
  0
ARC
  5
A4
330
1F
100
AcDbEntity
  8
0
  6
Continuous
 62
     7
370
    25
100
AcDbCircle
 10
1366.0733512996
 20
-30036.2300480776
 30
0.0
 40
30628.62500000072
100
AcDbArc
 50
90.0
 51
90.4274500427
  0
LINE
  5
A5
330
1F
100
AcDbEntity
  8
0
  6
Continuous
 62
     7
370
    25
100
AcDbLine
 10
1123.5733512996
 20
591.4349484687
 30
0.0
 11
1118.5733512996
 21
591.3949519231
 31
0.0
  0
ARC
  5
A6
330
1F
100
AcDbEntity
  8
0
  6
Continuous
 62
     7
370
    25
100
AcDbCircle
 10
1366.0733512996
 20
30228.0199519238
 30
0.0
 40
30628.62500000072
100
AcDbArc
 50
269.5370063213
 51
270.0
  0
LINE
  5
A7
330
1F
100
AcDbEntity
  8
0
  6
Continuous
 62
     7
370
    25
100
AcDbLine
 10
1137.5733512996
 20
590.3042014834
 30
0.0
 11
1137.5733512996
 21
595.8949519231
 31
0.0
  0
LINE
  5
A8
330
1F
100
AcDbEntity
  8
0
  6
Continuous
 62
     7
370
    25
100
AcDbLine
 10
1123.5733512996
 20
595.8949519231
 30
0.0
 11
1123.5733512996
 21
590.1965119276
 31
0.0
  0
LINE
  5
A9
330
1F
100
AcDbEntity
  8
0
  6
Continuous
 62
     7
370
    25
100
AcDbLine
 10
1633.5733512996
 20
590.1967891829
 30
0.0
 11
1633.5733512996
 21
595.8949519231
 31
0.0
  0
LINE
  5
AA
330
1F
100
AcDbEntity
  8
0
  6
Continuous
 62
     7
370
    25
100
AcDbLine
 10
1619.5733512996
 20
595.8949519231
 30
0.0
 11
1619.5733512996
 21
590.3034453083
 31
0.0
  0
LINE
  5
AB
330
1F
100
AcDbEntity
  8
0
  6
Continuous
 62
     7
370
    25
100
AcDbLine
 10
1638.5733512996
 20
95.8949519231
 30
0.0
 11
1638.5733512996
 21
591.3949519231
 31
0.0
  0
LINE
  5
AC
330
1F
100
AcDbEntity
  8
0
  6
Continuous
 62
     7
370
    25
100
AcDbLine
 10
1638.5733512996
 20
-399.6050480769
 30
0.0
 11
1638.5733512996
 21
95.8949519231
 31
0.0
  0
SPLINE
  5
AD
330
1F
100
AcDbEntity
  8
0
  6
Continuous
 62
     7
370
    25
100
AcDbSpline
210
0.0
220
0.0
230
1.0
 70
     8
 71
     3
 72
    18
 73
    14
 74
     0
 42
0.00000001
 43
0.00000001
 40
0.0
 40
0.0
 40
0.0
 40
0.0
 40
0.0116160668533635
 40
0.1193602646535058
 40
0.2271327251546863
 40
0.3347338413753574
 40
0.4420109847973362
 40
0.5489820936989397
 40
0.6558579214325198
 40
0.7629188405129702
 40
0.8703328660471211
 40
0.9780553761063554
 40
1.0
 40
1.0
 40
1.0
 40
1.0
 10
1633.535186300658
 20
590.1967891828951
 30
0.0
 10
1633.547590395104
 20
590.1909247671317
 30
0.0
 10
1633.675047994523
 20
590.1306652811628
 30
0.0
 10
1633.162119096056
 20
590.0094687391066
 30
0.0
 10
1631.984010769345
 20
589.8587853643215
 30
0.0
 10
1630.113930313928
 20
589.7476487134838
 30
0.0
 10
1627.868872346944
 20
589.6954267435613
 30
0.0
 10
1625.475978278661
 20
589.7110614966756
 30
0.0
 10
1623.215645407726
 20
589.7925170741248
 30
0.0
 10
1621.312293929845
 20
589.9278533456933
 30
0.0
 10
1620.064427106872
 20
590.0945633509077
 30
0.0
 10
1619.499476956082
 20
590.2285903692878
 30
0.0
 10
1619.617956197944
 20
590.2926106374749
 30
0.0
 10
1619.638007403847
 20
590.3034453082518
 30
0.0
  0
LINE
  5
AE
330
1F
100
AcDbEntity
  8
0
  6
Continuous
 62
     7
370
    25
100
AcDbLine
 10
1118.5733512996
 20
95.8949519231
 30
0.0
 11
1118.5733512996
 21
591.3949519231
 31
0.0
  0
LINE
  5
AF
330
1F
100
AcDbEntity
  8
0
  6
Continuous
 62
     7
370
    25
100
AcDbLine
 10
1118.5733512996
 20
-399.6050480769
 30
0.0
 11
1118.5733512996
 21
95.8949519231
 31
0.0
  0
SPLINE
  5
B0
330
1F
100
AcDbEntity
  8
0
  6
Continuous
 62
     7
370
    25
100
AcDbSpline
210
0.0
220
0.0
230
1.0
 70
     8
 71
     3
 72
    18
 73
    14
 74
     0
 42
0.00000001
 43
0.00000001
 40
0.0
 40
0.0
 40
0.0
 40
0.0
 40
0.0106299471324159
 40
0.1183026501670477
 40
0.2261212164647397
 40
0.3338759044946429
 40
0.4413456996524994
 40
0.5484528918318544
 40
0.6553384042672777
 40
0.7622780534638308
 40
0.8695017058578223
 40
0.9770579918643667
 40
1.0
 40
1.0
 40
1.0
 40
1.0
 10
1137.538117615733
 20
590.3042014833569
 30
0.0
 10
1137.549604668445
 20
590.2990150650547
 30
0.0
 10
1137.677446205344
 20
590.2412944553113
 30
0.0
 10
1137.16970315897
 20
590.1127816218552
 30
0.0
 10
1135.99976688737
 20
589.9438310835793
 30
0.0
 10
1134.133400401169
 20
589.8033501097962
 30
0.0
 10
1131.888430608496
 20
589.715853948704
 30
0.0
 10
1129.493022599298
 20
589.6940092374268
 30
0.0
 10
1127.22973954233
 20
589.7401753582253
 30
0.0
 10
1125.323972045197
 20
589.8457860184661
 30
0.0
 10
1124.071412943993
 20
589.9929231177364
 30
0.0
 10
1123.502477510246
 20
590.118540393166
 30
0.0
 10
1123.619526699687
 20
590.1848538198195
 30
0.0
 10
1123.640104313166
 20
590.1965119275654
 30
0.0
  0
LINE
  5
B1
330
1F
100
AcDbEntity
  8
0
  6
Continuous
 62
     7
370
    25
100
AcDbLine
 10
1137.5733512996
 20
595.8949519231
 30
0.0
 11
1123.5733512996
 21
595.8949519231
 31
0.0
  0
LINE
  5
B2
330
1F
100
AcDbEntity
  8
0
  6
Continuous
 62
     7
370
    25
100
AcDbLine
 10
1633.5733512996
 20
595.8949519231
 30
0.0
 11
1619.5733512996
 21
595.8949519231
 31
0.0
  0
LINE
  5
B3
330
1F
100
AcDbEntity
  8
0
  6
Continuous
 62
     1
370
    25
100
AcDbLine
 10
1391.0733512996
 20
95.8949519231
 30
0.0
 11
1391.0733512996
 21
592.3949519231
 31
0.0
  0
LINE
  5
B4
330
1F
100
AcDbEntity
  8
0
  6
Continuous
 62
     1
370
    25
100
AcDbLine
 10
1391.0733512996
 20
-400.6050480769
 30
0.0
 11
1391.0733512996
 21
95.8949519231
 31
0.0
  0
LINE
  5
B5
330
1F
100
AcDbEntity
  8
0
  6
Continuous
 62
     1
370
    25
100
AcDbLine
 10
1366.0733512996
 20
95.8949519231
 30
0.0
 11
1366.0733512996
 21
592.3949519231
 31
0.0
  0
LINE
  5
B6
330
1F
100
AcDbEntity
  8
0
  6
Continuous
 62
     1
370
    25
100
AcDbLine
 10
1366.0733512996
 20
-400.6050480769
 30
0.0
 11
1366.0733512996
 21
95.8949519231
 31
0.0
  0
LINE
  5
B7
330
1F
100
AcDbEntity
  8
0
  6
Continuous
 62
     7
370
    25
100
AcDbLine
 10
627.1070913462
 20
1093.8349062052
 30
0.0
 11
627.1070913462
 21
1118.8349062052
 31
0.0
  0
LINE
  5
B8
330
1F
100
AcDbEntity
  8
0
  6
Continuous
 62
     7
370
    25
100
AcDbLine
 10
-365.8929086538
 20
1118.8349062052
 30
0.0
 11
-365.8929086538
 21
1093.8349062052
 31
0.0
  0
ARC
  5
B9
330
1F
100
AcDbEntity
  8
0
  6
Continuous
 62
     7
370
    25
100
AcDbCircle
 10
30262.7320913469
 20
1118.8349062052
 30
0.0
 40
30628.62500000072
100
AcDbArc
 50
179.5370063213
 51
180.0
  0
ARC
  5
BA
330
1F
100
AcDbEntity
  8
0
  6
Continuous
 62
     7
370
    25
100
AcDbCircle
 10
-30001.5179086546
 20
1118.8349062052
 30
0.0
 40
30628.62500000072
100
AcDbArc
 50
0.0
 51
0.4629936787
  0
ARC
  5
BB
330
1F
100
AcDbEntity
  8
0
  6
Continuous
 62
     7
370
    25
100
AcDbCircle
 10
30262.7320913469
 20
1093.8349062053
 30
0.0
 40
30628.62500000072
100
AcDbArc
 50
180.0
 51
180.4629936787
  0
ARC
  5
BC
330
1F
100
AcDbEntity
  8
0
  6
Continuous
 62
     7
370
    25
100
AcDbCircle
 10
-30001.5179086546
 20
1093.8349062053
 30
0.0
 40
30628.62500000072
100
AcDbArc
 50
359.5370063213
 51
0.0
  0
LINE
  5
BD
330
1F
100
AcDbEntity
  8
0
  6
Continuous
 62
     7
370
    25
100
AcDbLine
 10
626.1070913462
 20
1366.3349062052
 30
0.0
 11
-364.8929086538
 21
1366.3349062052
 31
0.0
  0
LINE
  5
BE
330
1F
100
AcDbEntity
  8
0
  6
Continuous
 62
     7
370
    25
100
AcDbLine
 10
626.1070913462
 20
846.3349062052
 30
0.0
 11
-364.8929086538
 21
846.3349062052
 31
0.0
  0
LINE
  5
BF
330
1F
100
AcDbEntity
  8
0
  6
Continuous
 62
     1
370
    25
100
AcDbLine
 10
627.1070913462
 20
1118.8349062052
 30
0.0
 11
-365.8929086538
 21
1118.8349062052
 31
0.0
  0
LINE
  5
C0
330
1F
100
AcDbEntity
  8
0
  6
Continuous
 62
     1
370
    25
100
AcDbLine
 10
627.1070913462
 20
1093.8349062052
 30
0.0
 11
-365.8929086538
 21
1093.8349062052
 31
0.0
  0
LINE
  5
C1
330
1F
100
AcDbEntity
  8
0
  6
Continuous
 62
     7
370
    25
100
AcDbLine
 10
-973.8449677554
 20
592.3949519231
 30
0.0
 11
-998.8449677554
 21
592.3949519231
 31
0.0
  0
LINE
  5
C2
330
1F
100
AcDbEntity
  8
0
  6
Continuous
 62
     7
370
    25
100
AcDbLine
 10
-998.8449677554
 20
-400.6050480769
 30
0.0
 11
-973.8449677554
 21
-400.6050480769
 31
0.0
  0
ARC
  5
C3
330
1F
100
AcDbEntity
  8
0
  6
Continuous
 62
     7
370
    25
100
AcDbCircle
 10
-998.8449677554
 20
30228.0199519238
 30
0.0
 40
30628.62500000072
100
AcDbArc
 50
269.5370063213
 51
270.0
  0
ARC
  5
C4
330
1F
100
AcDbEntity
  8
0
  6
Continuous
 62
     7
370
    25
100
AcDbCircle
 10
-998.8449677554
 20
-30036.2300480776
 30
0.0
 40
30628.62500000072
100
AcDbArc
 50
90.0
 51
90.4274500427
  0
LINE
  5
C5
330
1F
100
AcDbEntity
  8
0
  6
Continuous
 62
     7
370
    25
100
AcDbLine
 10
-1241.3449677554
 20
591.4349484687
 30
0.0
 11
-1246.3449677554
 21
591.3949519231
 31
0.0
  0
ARC
  5
C6
330
1F
100
AcDbEntity
  8
0
  6
Continuous
 62
     7
370
    25
100
AcDbCircle
 10
-973.8449677554
 20
30228.0199519238
 30
0.0
 40
30628.62500000072
100
AcDbArc
 50
270.0
 51
270.4629936787
  0
LINE
  5
C7
330
1F
100
AcDbEntity
  8
0
  6
Continuous
 62
     7
370
    25
100
AcDbLine
 10
-726.3449677554
 20
591.3949519231
 30
0.0
 11
-731.3449677554
 21
591.4349484687
 31
0.0
  0
ARC
  5
C8
330
1F
100
AcDbEntity
  8
0
  6
Continuous
 62
     7
370
    25
100
AcDbCircle
 10
-973.8449677554
 20
-30036.2300480776
 30
0.0
 40
30628.62500000072
100
AcDbArc
 50
89.5725499573
 51
90.0
  0
LINE
  5
C9
330
1F
100
AcDbEntity
  8
0
  6
Continuous
 62
     7
370
    25
100
AcDbLine
 10
-731.3449677554
 20
590.1964973815
 30
0.0
 11
-731.3449677554
 21
595.8949519231
 31
0.0
  0
LINE
  5
CA
330
1F
100
AcDbEntity
  8
0
  6
Continuous
 62
     7
370
    25
100
AcDbLine
 10
-745.3449677554
 20
595.8949519231
 30
0.0
 11
-745.3449677554
 21
590.303023795
 31
0.0
  0
LINE
  5
CB
330
1F
100
AcDbEntity
  8
0
  6
Continuous
 62
     7
370
    25
100
AcDbLine
 10
-1227.3449677554
 20
590.3030194903
 30
0.0
 11
-1227.3449677554
 21
595.8949519231
 31
0.0
  0
LINE
  5
CC
330
1F
100
AcDbEntity
  8
0
  6
Continuous
 62
     7
370
    25
100
AcDbLine
 10
-1241.3449677554
 20
595.8949519231
 30
0.0
 11
-1241.3449677554
 21
590.1964793001
 31
0.0
  0
LINE
  5
CD
330
1F
100
AcDbEntity
  8
0
  6
Continuous
 62
     7
370
    25
100
AcDbLine
 10
-1246.3449677554
 20
591.3949519231
 30
0.0
 11
-1246.3449677554
 21
-399.6050480769
 31
0.0
  0
SPLINE
  5
CE
330
1F
100
AcDbEntity
  8
0
  6
Continuous
 62
     7
370
    25
100
AcDbSpline
210
0.0
220
0.0
230
1.0
 70
     8
 71
     3
 72
    10
 73
     6
 74
     0
 42
0.00000001
 43
0.00000001
 40
0.0
 40
0.0
 40
0.0
 40
0.0
 40
0.428454638089074
 40
0.8568796736862713
 40
0.9999999999999999
 40
0.9999999999999999
 40
0.9999999999999999
 40
0.9999999999999999
 10
-1239.279314805914
 20
589.8370734926059
 30
0.0
 10
-1239.773363196111
 20
589.8818516943003
 30
0.0
 10
-1240.761425842056
 20
589.9714050039046
 30
0.0
 10
-1241.376231661616
 20
590.1047671047945
 30
0.0
 10
-1241.280322554759
 20
590.178112839303
 30
0.0
 10
-1241.256306013667
 20
590.1964793000534
 30
0.0
  0
SPLINE
  5
CF
330
1F
100
AcDbEntity
  8
0
  6
Continuous
 62
     7
370
    25
100
AcDbSpline
210
0.0
220
0.0
230
1.0
 70
     8
 71
     3
 72
    15
 73
    11
 74
     0
 42
0.00000001
 43
0.00000001
 40
0.0
 40
0.0
 40
0.0
 40
0.0
 40
0.0507871880035759
 40
0.1945934562885643
 40
0.338534613439979
 40
0.48230853003082
 40
0.6256502983929864
 40
0.7685289367043899
 40
0.9111971085183987
 40
1.0
 40
1.0
 40
1.0
 40
1.0
 10
-1227.435767643789
 20
590.3030194903496
 30
0.0
 10
-1227.411445106964
 20
590.2839023214991
 30
0.0
 10
-1227.318252183856
 20
590.2106540061798
 30
0.0
 10
-1227.977834428624
 20
590.0683560612226
 30
0.0
 10
-1229.343677946832
 20
589.9041089630941
 30
0.0
 10
-1231.328062284927
 20
589.7754135216658
 30
0.0
 10
-1233.638868365801
 20
589.7036454348253
 30
0.0
 10
-1236.018902348099
 20
589.6998631261989
 30
0.0
 10
-1237.959272984018
 20
589.7529535214533
 30
0.0
 10
-1238.913304617097
 20
589.813749408464
 30
0.0
 10
-1239.279314805914
 20
589.8370734926059
 30
0.0
  0
LINE
  5
D0
330
1F
100
AcDbEntity
  8
0
  6
Continuous
 62
     7
370
    25
100
AcDbLine
 10
-726.3449677554
 20
591.3949519231
 30
0.0
 11
-726.3449677554
 21
-399.6050480769
 31
0.0
  0
SPLINE
  5
D1
330
1F
100
AcDbEntity
  8
0
  6
Continuous
 62
     7
370
    25
100
AcDbSpline
210
0.0
220
0.0
230
1.0
 70
     8
 71
     3
 72
    10
 73
     6
 74
     0
 42
0.00000001
 43
0.00000001
 40
0.0
 40
0.0
 40
0.0
 40
0.0
 40
0.4281756198527429
 40
0.8563314034078907
 40
1.0
 40
1.0
 40
1.0
 40
1.0
 10
-743.2728590532747
 20
589.9126357856718
 30
0.0
 10
-743.7680464292333
 20
589.9650327373962
 30
0.0
 10
-744.7583982403673
 20
590.0698242134262
 30
0.0
 10
-745.3757475887577
 20
590.2128705073125
 30
0.0
 10
-745.2799933027093
 20
590.2849213163347
 30
0.0
 10
-745.255935419954
 20
590.3030237949538
 30
0.0
  0
SPLINE
  5
D2
330
1F
100
AcDbEntity
  8
0
  6
Continuous
 62
     7
370
    25
100
AcDbSpline
210
0.0
220
0.0
230
1.0
 70
     8
 71
     3
 72
    15
 73
    11
 74
     0
 42
0.00000001
 43
0.00000001
 40
0.0
 40
0.0
 40
0.0
 40
0.0
 40
0.0505918510293734
 40
0.1945516226730438
 40
0.3384878904878428
 40
0.4821326317542371
 40
0.6253249945568209
 40
0.768156759789368
 40
0.910953380962423
 40
1.0
 40
1.0
 40
1.0
 40
1.0
 10
-731.4357416392412
 20
590.1964973814917
 30
0.0
 10
-731.4113507427649
 20
590.177093401924
 30
0.0
 10
-731.317555232394
 20
590.1024751455371
 30
0.0
 10
-731.976485489124
 20
589.9703465990964
 30
0.0
 10
-733.3414912605894
 20
589.82711325036
 30
0.0
 10
-735.3237984980832
 20
589.7290157831292
 30
0.0
 10
-737.6314525067182
 20
589.6927819225554
 30
0.0
 10
-740.0093967188969
 20
589.72544704032
 30
0.0
 10
-741.9503807434451
 20
589.8082172501922
 30
0.0
 10
-742.9058726283475
 20
589.8836597451977
 30
0.0
 10
-743.2728590532747
 20
589.9126357856718
 30
0.0
  0
LINE
  5
D3
330
1F
100
AcDbEntity
  8
0
  6
Continuous
 62
     7
370
    25
100
AcDbLine
 10
-731.3449677554
 20
595.8949519231
 30
0.0
 11
-745.3449677554
 21
595.8949519231
 31
0.0
  0
LINE
  5
D4
330
1F
100
AcDbEntity
  8
0
  6
Continuous
 62
     7
370
    25
100
AcDbLine
 10
-1227.3449677554
 20
595.8949519231
 30
0.0
 11
-1241.3449677554
 21
595.8949519231
 31
0.0
  0
LINE
  5
D5
330
1F
100
AcDbEntity
  8
0
  6
Continuous
 62
     1
370
    25
100
AcDbLine
 10
-998.8449677554
 20
592.3949519231
 30
0.0
 11
-998.8449677554
 21
-400.6050480769
 31
0.0
  0
LINE
  5
D6
330
1F
100
AcDbEntity
  8
0
  6
Continuous
 62
     1
370
    25
100
AcDbLine
 10
-973.8449677554
 20
592.3949519231
 30
0.0
 11
-973.8449677554
 21
-400.6050480769
 31
0.0
  0
LINE
  5
D7
330
1F
100
AcDbEntity
  8
0
  6
Continuous
 62
     7
370
    25
100
AcDbLine
 10
-365.8929086538
 20
-1261.6364433209
 30
0.0
 11
-365.8929086538
 21
-1286.6364433209
 31
0.0
  0
LINE
  5
D8
330
1F
100
AcDbEntity
  8
0
  6
Continuous
 62
     7
370
    25
100
AcDbLine
 10
627.1070913462
 20
-1286.6364433209
 30
0.0
 11
627.1070913462
 21
-1261.6364433209
 31
0.0
  0
ARC
  5
D9
330
1F
100
AcDbEntity
  8
0
  6
Continuous
 62
     7
370
    25
100
AcDbCircle
 10
-30001.5179086546
 20
-1286.6364433209
 30
0.0
 40
30628.62500000072
100
AcDbArc
 50
359.5370063213
 51
0.0
  0
ARC
  5
DA
330
1F
100
AcDbEntity
  8
0
  6
Continuous
 62
     7
370
    25
100
AcDbCircle
 10
30262.7320913469
 20
-1286.6364433209
 30
0.0
 40
30628.62500000072
100
AcDbArc
 50
180.0
 51
180.4629936787
  0
ARC
  5
DB
330
1F
100
AcDbEntity
  8
0
  6
Continuous
 62
     7
370
    25
100
AcDbCircle
 10
-30001.5179086546
 20
-1261.6364433209
 30
0.0
 40
30628.62500000072
100
AcDbArc
 50
0.0
 51
0.4629936787
  0
ARC
  5
DC
330
1F
100
AcDbEntity
  8
0
  6
Continuous
 62
     7
370
    25
100
AcDbCircle
 10
30262.7320913469
 20
-1261.6364433209
 30
0.0
 40
30628.62500000072
100
AcDbArc
 50
179.5370063213
 51
180.0
  0
CIRCLE
  5
DD
330
1F
100
AcDbEntity
  8
0
  6
Continuous
 62
     7
370
    25
100
AcDbCircle
 10
165.6070913462
 20
-1026.1364433209
 30
0.0
 40
7.0
  0
CIRCLE
  5
DE
330
1F
100
AcDbEntity
  8
0
  6
Continuous
 62
     7
370
    25
100
AcDbCircle
 10
165.6070913462
 20
-1026.1364433209
 30
0.0
 40
5.0
  0
CIRCLE
  5
DF
330
1F
100
AcDbEntity
  8
0
  6
Continuous
 62
     7
370
    25
100
AcDbCircle
 10
95.6070913462
 20
-1026.1364433209
 30
0.0
 40
5.0
  0
CIRCLE
  5
E0
330
1F
100
AcDbEntity
  8
0
  6
Continuous
 62
     7
370
    25
100
AcDbCircle
 10
95.6070913462
 20
-1026.1364433209
 30
0.0
 40
7.0
  0
CIRCLE
  5
E1
330
1F
100
AcDbEntity
  8
0
  6
Continuous
 62
     7
370
    25
100
AcDbCircle
 10
165.6070913462
 20
-1522.1364433209
 30
0.0
 40
7.0
  0
CIRCLE
  5
E2
330
1F
100
AcDbEntity
  8
0
  6
Continuous
 62
     7
370
    25
100
AcDbCircle
 10
165.6070913462
 20
-1522.1364433209
 30
0.0
 40
5.0
  0
CIRCLE
  5
E3
330
1F
100
AcDbEntity
  8
0
  6
Continuous
 62
     7
370
    25
100
AcDbCircle
 10
95.6070913462
 20
-1522.1364433209
 30
0.0
 40
5.0
  0
CIRCLE
  5
E4
330
1F
100
AcDbEntity
  8
0
  6
Continuous
 62
     7
370
    25
100
AcDbCircle
 10
95.6070913462
 20
-1522.1364433209
 30
0.0
 40
7.0
  0
LINE
  5
E5
330
1F
100
AcDbEntity
  8
0
  6
Continuous
 62
     7
370
    25
100
AcDbLine
 10
-364.8929086538
 20
-1534.1364433209
 30
0.0
 11
626.1070913462
 21
-1534.1364433209
 31
0.0
  0
LINE
  5
E6
330
1F
100
AcDbEntity
  8
0
  6
Continuous
 62
     7
370
    25
100
AcDbLine
 10
-364.8929086538
 20
-1014.1364433209
 30
0.0
 11
626.1070913462
 21
-1014.1364433209
 31
0.0
  0
LINE
  5
E7
330
1F
100
AcDbEntity
  8
0
  6
Continuous
 62
     1
370
    25
100
AcDbLine
 10
-365.8929086538
 20
-1286.6364433209
 30
0.0
 11
627.1070913462
 21
-1286.6364433209
 31
0.0
  0
LINE
  5
E8
330
1F
100
AcDbEntity
  8
0
  6
Continuous
 62
     1
370
    25
100
AcDbLine
 10
-365.8929086538
 20
-1261.6364433209
 30
0.0
 11
627.1070913462
 21
-1261.6364433209
 31
0.0
  0
INSERT
  5
F4
330
1F
100
AcDbEntity
  8
FORMAT
 62
     7
100
AcDbBlockReference
  2
SW_CENTERMARKSYMBOL_1
 10
130.6070913462
 20
-1241.1364433209
 30
0.0
  0
INSERT
  5
100
330
1F
100
AcDbEntity
  8
FORMAT
 62
     7
100
AcDbBlockReference
  2
SW_CENTERMARKSYMBOL_2
 10
130.6070913462
 20
-1307.1364433209
 30
0.0
  0
SPLINE
  5
101
330
1F
100
AcDbEntity
  8
0
  6
Continuous
 62
     7
370
    25
100
AcDbSpline
210
0.0
220
0.0
230
1.0
 70
     8
 71
     3
 72
    11
 73
     7
 74
     0
 42
0.00000001
 43
0.00000001
 40
0.0
 40
0.0
 40
0.0
 40
0.0
 40
0.061175661901219
 40
0.4569831371496205
 40
0.8527798567593243
 40
1.0
 40
1.0
 40
1.0
 40
1.0
 10
1156.603705475189
 20
-763.7486030738362
 30
0.0
 10
1153.002641374824
 20
-765.8197836574163
 30
0.0
 10
1126.102637050907
 20
-781.2915345346871
 30
0.0
 10
1076.063808268589
 20
-810.4394910734989
 30
0.0
 10
1021.024277322964
 20
-842.6100452658256
 30
0.0
 10
989.2933059264258
 20
-861.3918525569746
 30
0.0
 10
980.6905562260883
 20
-866.4838866150102
 30
0.0
  0
SPLINE
  5
102
330
1F
100
AcDbEntity
  8
0
  6
Continuous
 62
     7
370
    25
100
AcDbSpline
210
0.0
220
0.0
230
1.0
 70
     8
 71
     3
 72
    10
 73
     6
 74
     0
 42
0.00000001
 43
0.00000001
 40
0.0
 40
0.0
 40
0.0
 40
0.0
 40
0.2695374894317578
 40
0.665358673340825
 40
0.9999999999999999
 40
0.9999999999999999
 40
0.9999999999999999
 40
0.9999999999999999
 10
1476.107391814121
 20
-1724.662167696864
 30
0.0
 10
1492.047433255372
 20
-1715.667652730791
 30
0.0
 10
1531.395743758331
 20
-1693.464512982818
 30
0.0
 10
1590.379952775919
 20
-1659.818070505853
 30
0.0
 10
1633.354873906969
 20
-1635.047411689726
 30
0.0
 10
1653.04265310481
 20
-1623.699415032099
 30
0.0
  0
LINE
  5
103
330
1F
100
AcDbEntity
  8
0
  6
Continuous
 62
     7
370
    25
100
AcDbLine
 10
1174.2709853051
 20
-753.5256694308
 30
0.0
 11
1156.5933157754
 21
-763.7307708286
 31
0.0
  0
LINE
  5
104
330
1F
100
AcDbEntity
  8
0
  6
Continuous
 62
     7
370
    25
100
AcDbLine
 10
1653.0529665292
 20
-1623.7172911726
 30
0.0
 11
1670.7306360589
 21
-1613.5121897748
 31
0.0
  0
SPLINE
  5
105
330
1F
100
AcDbEntity
  8
0
  6
Continuous
 62
     7
370
    25
100
AcDbSpline
210
0.0
220
0.0
230
1.0
 70
     8
 71
     3
 72
    10
 73
     6
 74
     0
 42
0.00000001
 43
0.00000001
 40
0.0
 40
0.0
 40
0.0
 40
0.0
 40
0.2695390125968357
 40
0.665359605222022
 40
1.0
 40
1.0
 40
1.0
 40
1.0
 10
1351.216901570732
 20
-652.5805998958353
 30
0.0
 10
1335.276746218423
 20
-661.5751790880652
 30
0.0
 10
1295.928321772518
 20
-683.7783830058286
 30
0.0
 10
1236.944024497129
 20
-717.4248754858827
 30
0.0
 10
1193.969128785611
 20
-742.1955196629555
 30
0.0
 10
1174.281375004851
 20
-753.5435016760528
 30
0.0
  0
SPLINE
  5
106
330
1F
100
AcDbEntity
  8
0
  6
Continuous
 62
     7
370
    25
100
AcDbSpline
210
0.0
220
0.0
230
1.0
 70
     8
 71
     3
 72
    11
 73
     7
 74
     0
 42
0.00000001
 43
0.00000001
 40
0.0
 40
0.0
 40
0.0
 40
0.0
 40
0.0611753221422299
 40
0.4569833940233552
 40
0.8527807102463856
 40
1.0
 40
1.0
 40
1.0
 40
1.0
 10
1670.720322634489
 20
-1613.494313634308
 30
0.0
 10
1674.321361304093
 20
-1611.423147670647
 30
0.0
 10
1701.221340178238
 20
-1595.951411380337
 30
0.0
 10
1751.260143515203
 20
-1566.803469438457
 30
0.0
 10
1806.299611557825
 20
-1534.632952339013
 30
0.0
 10
1838.030520160208
 20
-1515.851182322155
 30
0.0
 10
1846.633207032514
 20
-1510.759185481239
 30
0.0
  0
LINE
  5
107
330
1F
100
AcDbEntity
  8
0
  6
Continuous
 62
     7
370
    25
100
AcDbLine
 10
1270.0482315244
 20
-900.7557401577
 30
0.0
 11
1270.0482315244
 21
-895.8728221818
 31
0.0
  0
LINE
  5
108
330
1F
100
AcDbEntity
  8
0
  6
Continuous
 62
     7
370
    25
100
AcDbLine
 10
1256.0482315244
 20
-895.8728221818
 30
0.0
 11
1256.0482315244
 21
-900.2491862503
 31
0.0
  0
LINE
  5
109
330
1F
100
AcDbEntity
  8
0
  6
Continuous
 62
     7
370
    25
100
AcDbLine
 10
1220.5507568414
 20
-871.6139778901
 30
0.0
 11
1220.5507568414
 21
-867.298538268
 31
0.0
  0
LINE
  5
10A
330
1F
100
AcDbEntity
  8
0
  6
Continuous
 62
     7
370
    25
100
AcDbLine
 10
1206.5507568414
 20
-867.298538268
 30
0.0
 11
1206.5507568414
 21
-872.2407583363
 31
0.0
  0
LINE
  5
10B
330
1F
100
AcDbEntity
  8
0
  6
Continuous
 62
     7
370
    25
100
AcDbLine
 10
1620.7731949929
 20
-698.3487759452
 30
0.0
 11
1620.7731949929
 21
-693.4036104497
 31
0.0
  0
LINE
  5
10C
330
1F
100
AcDbEntity
  8
0
  6
Continuous
 62
     7
370
    25
100
AcDbLine
 10
1606.7731949929
 20
-693.4036104497
 30
0.0
 11
1606.7731949929
 21
-697.7185307971
 31
0.0
  0
LINE
  5
10D
330
1F
100
AcDbEntity
  8
0
  6
Continuous
 62
     7
370
    25
100
AcDbLine
 10
1571.2757203099
 20
-669.2061327917
 30
0.0
 11
1571.2757203099
 21
-664.8293265359
 31
0.0
  0
LINE
  5
10E
330
1F
100
AcDbEntity
  8
0
  6
Continuous
 62
     7
370
    25
100
AcDbLine
 10
1557.2757203099
 20
-664.8293265359
 30
0.0
 11
1557.2757203099
 21
-669.7096415694
 31
0.0
  0
LWPOLYLINE
  5
10F
330
1F
100
AcDbEntity
  8
0
  6
Continuous
 62
     7
370
    25
100
AcDbPolyline
 90
      237
 70
   128
 43
0.0
 10
879.4428027307
 20
-1092.4894251346
 10
879.5669704611
 20
-1081.7905498856
 10
879.939385645
 20
-1071.2426187714
 10
880.5597843227
 20
-1060.8531079308
 10
881.4277267695
 20
-1050.6293812181
 10
882.542597807
 20
-1040.5786849832
 10
883.9036072396
 20
-1030.708142936
 10
885.509790414
 20
-1021.0247510972
 10
887.3600089032
 20
-1011.5353728395
 10
889.4529513136
 20
-1002.2467340231
 10
891.7871342142
 20
-993.1654182285
 10
894.3609031881
 20
-984.2978620903
 10
897.172434005
 20
-975.6503507351
 10
900.2197339144
 20
-967.2290133264
 10
903.5006430581
 20
-959.039818721
 10
907.0128360005
 20
-951.0885712378
 10
910.7538233775
 20
-943.3809065441
 10
914.7209536604
 20
-935.9222876611
 10
918.9114150355
 20
-928.718001092
 10
923.3222373971
 20
-921.7731530748
 10
927.9502944523
 20
-915.0926659634
 10
932.7923059373
 20
-908.6812747383
 10
937.8448399421
 20
-902.5435236511
 10
943.104315343
 20
-896.6837630031
 10
948.5670043408
 20
-891.1061460623
 10
954.2290351031
 20
-885.8146261196
 10
960.0863945084
 20
-880.8129536865
 10
966.1349309907
 20
-876.1046738372
 10
972.3703574819
 20
-871.6931236957
 10
978.7882544505
 20
-867.5814300707
 10
985.3840730338
 20
-863.772507239
 10
992.1531382623
 20
-860.2690548805
 10
999.0906523733
 20
-857.0735561642
 10
1006.191698211
 20
-854.1882759885
 10
1013.4512427121
 20
-851.6152593759
 10
1020.8641404731
 20
-849.3563300233
 10
1028.4251373968
 20
-847.4130890095
 10
1036.1288744169
 20
-845.7869136605
 10
1043.9698912959
 20
-844.4789565733
 10
1051.9426304956
 20
-843.4901447987
 10
1060.0414411157
 20
-842.8211791846
 10
1068.2605828995
 20
-842.4725338788
 10
1076.5942303021
 20
-842.4444559934
 10
1085.0364766196
 20
-842.7369654294
 10
1093.5813381757
 20
-843.3498548626
 10
1102.2227585625
 20
-844.2826898907
 10
1110.9546129336
 20
-845.5348093408
 10
1119.7707123449
 20
-847.1053257386
 10
1128.6648081411
 20
-848.993125937
 10
1137.6305963851
 20
-851.1968719052
 10
1146.6617223257
 20
-853.7150016771
 10
1155.7517849016
 20
-856.5457304584
 10
1164.8943412787
 20
-859.6870518914
 10
1174.0829114165
 20
-863.1367394774
 10
1183.3109826609
 20
-866.8923481547
 10
1192.5720143603
 20
-870.9512160312
 10
1201.8594425014
 20
-875.3104662718
 10
1211.1666843618
 20
-879.9670091368
 10
1220.4871431755
 20
-884.9175441724
 10
1229.8142128087
 20
-890.1585625493
 10
1239.1412824418
 20
-895.6863495504
 10
1248.4617412555
 20
-901.4969872031
 10
1257.7689831159
 20
-907.5863570569
 10
1267.056411257
 20
-913.9501431018
 10
1276.3174429564
 20
-920.5838348278
 10
1285.5455142008
 20
-927.4827304219
 10
1294.7340843386
 20
-934.6419401002
 10
1303.8766407157
 20
-942.0563895744
 10
1312.9667032916
 20
-949.7208236474
 10
1321.9978292322
 20
-957.629809939
 10
1330.9636174762
 20
-965.7777427357
 10
1339.8577132724
 20
-974.1588469638
 10
1348.6738126837
 20
-982.7671822833
 10
1357.4056670548
 20
-991.5966472975
 10
1366.0470874416
 20
-1000.6409838781
 10
1374.5919489977
 20
-1009.8937816004
 10
1383.0341953152
 20
-1019.3484822874
 10
1391.3678427178
 20
-1028.9983846575
 10
1399.5869845016
 20
-1038.8366490747
 10
1407.6857951217
 20
-1048.8563023958
 10
1415.6585343214
 20
-1059.0502429137
 10
1423.4995512004
 20
-1069.4112453899
 10
1431.2032882205
 20
-1079.9319661766
 10
1438.7642851442
 20
-1090.6049484207
 10
1446.1771829052
 20
-1101.42262735
 10
1453.4367274063
 20
-1112.3773356344
 10
1460.537773244
 20
-1123.4613088201
 10
1467.475287355
 20
-1134.6666908338
 10
1474.2443525835
 20
-1145.9855395498
 10
1480.8401711668
 20
-1157.40983242
 10
1487.2580681354
 20
-1168.9314721598
 10
1493.4934946266
 20
-1180.5422924873
 10
1499.5420311089
 20
-1192.2340639112
 10
1505.3993905142
 20
-1203.9984995642
 10
1511.0614212765
 20
-1215.827261076
 10
1516.5241102743
 20
-1227.7119644835
 10
1521.7835856752
 20
-1239.6441861734
 10
1526.83611968
 20
-1251.6154688524
 10
1531.678131165
 20
-1263.6173275416
 10
1536.3061882202
 20
-1275.6412555907
 10
1540.7170105818
 20
-1287.6787307069
 10
1544.9074719569
 20
-1299.7212209957
 10
1548.8746022398
 20
-1311.7601910078
 10
1552.6155896168
 20
-1323.7871077891
 10
1556.1277825592
 20
-1335.7934469286
 10
1559.4086917029
 20
-1347.7706986002
 10
1562.4559916123
 20
-1359.7103735944
 10
1565.2675224292
 20
-1371.6040093351
 10
1567.8412914031
 20
-1383.443175878
 10
1570.1754743037
 20
-1395.2194818851
 10
1572.2684167141
 20
-1406.9245805728
 10
1574.1186352033
 20
-1418.5501756276
 10
1575.7248183777
 20
-1430.0880270862
 10
1577.0858278103
 20
-1441.5299571762
 10
1578.2006988478
 20
-1452.8678561122
 10
1579.0686412946
 20
-1464.0936878437
 10
1579.6890399723
 20
-1475.1994957507
 10
1580.0614551562
 20
-1486.1774082838
 10
1580.1856228866
 20
-1497.0196445428
 10
1580.0614551562
 20
-1507.7185197917
 10
1579.6890399723
 20
-1518.266450906
 10
1579.0686412946
 20
-1528.6559617465
 10
1578.2006988478
 20
-1538.8796884593
 10
1577.0858278103
 20
-1548.9303846942
 10
1575.7248183777
 20
-1558.8009267414
 10
1574.1186352033
 20
-1568.4843185801
 10
1572.2684167141
 20
-1577.9736968378
 10
1570.1754743037
 20
-1587.2623356543
 10
1567.8412914031
 20
-1596.3436514489
 10
1565.2675224292
 20
-1605.2112075871
 10
1562.4559916123
 20
-1613.8587189423
 10
1559.4086917029
 20
-1622.2800563509
 10
1556.1277825592
 20
-1630.4692509563
 10
1552.6155896168
 20
-1638.4204984396
 10
1548.8746022398
 20
-1646.1281631333
 10
1544.9074719569
 20
-1653.5867820163
 10
1540.7170105818
 20
-1660.7910685854
 10
1536.3061882202
 20
-1667.7359166025
 10
1531.678131165
 20
-1674.416403714
 10
1526.83611968
 20
-1680.827794939
 10
1521.7835856752
 20
-1686.9655460263
 10
1516.5241102743
 20
-1692.8253066743
 10
1511.0614212765
 20
-1698.4029236151
 10
1505.3993905142
 20
-1703.6944435578
 10
1499.5420311089
 20
-1708.6961159909
 10
1493.4934946266
 20
-1713.4043958402
 10
1487.2580681354
 20
-1717.8159459816
 10
1480.8401711668
 20
-1721.9276396067
 10
1474.2443525835
 20
-1725.7365624384
 10
1467.475287355
 20
-1729.2400147969
 10
1460.537773244
 20
-1732.4355135132
 10
1453.4367274063
 20
-1735.3207936888
 10
1446.1771829052
 20
-1737.8938103015
 10
1438.7642851442
 20
-1740.1527396541
 10
1431.2032882205
 20
-1742.0959806679
 10
1423.4995512004
 20
-1743.7221560169
 10
1415.6585343214
 20
-1745.0301131041
 10
1407.6857951217
 20
-1746.0189248787
 10
1399.5869845016
 20
-1746.6878904928
 10
1391.3678427178
 20
-1747.0365357986
 10
1383.0341953152
 20
-1747.064613684
 10
1374.5919489977
 20
-1746.772104248
 10
1366.0470874416
 20
-1746.1592148147
 10
1357.4056670548
 20
-1745.2263797867
 10
1348.6738126837
 20
-1743.9742603366
 10
1339.8577132724
 20
-1742.4037439388
 10
1330.9636174762
 20
-1740.5159437404
 10
1321.9978292322
 20
-1738.3121977722
 10
1312.9667032916
 20
-1735.7940680002
 10
1303.8766407157
 20
-1732.963339219
 10
1294.7340843386
 20
-1729.822017786
 10
1285.5455142008
 20
-1726.3723301999
 10
1276.3174429564
 20
-1722.6167215227
 10
1267.056411257
 20
-1718.5578536462
 10
1257.7689831159
 20
-1714.1986034056
 10
1248.4617412555
 20
-1709.5420605405
 10
1239.1412824418
 20
-1704.591525505
 10
1229.8142128086
 20
-1699.3505071281
 10
1220.4871431755
 20
-1693.822720127
 10
1211.1666843618
 20
-1688.0120824742
 10
1201.8594425014
 20
-1681.9227126205
 10
1192.5720143603
 20
-1675.5589265756
 10
1183.3109826609
 20
-1668.9252348496
 10
1174.0829114165
 20
-1662.0263392555
 10
1164.8943412787
 20
-1654.8671295771
 10
1155.7517849016
 20
-1647.452680103
 10
1146.6617223257
 20
-1639.78824603
 10
1137.6305963851
 20
-1631.8792597384
 10
1128.6648081411
 20
-1623.7313269417
 10
1119.7707123449
 20
-1615.3502227136
 10
1110.9546129336
 20
-1606.7418873941
 10
1102.2227585625
 20
-1597.9124223799
 10
1093.5813381757
 20
-1588.8680857993
 10
1085.0364766196
 20
-1579.6152880769
 10
1076.5942303021
 20
-1570.1605873899
 10
1068.2605828995
 20
-1560.5106850198
 10
1060.0414411157
 20
-1550.6724206027
 10
1051.9426304956
 20
-1540.6527672816
 10
1043.9698912959
 20
-1530.4588267637
 10
1036.1288744169
 20
-1520.0978242875
 10
1028.4251373968
 20
-1509.5771035008
 10
1020.8641404731
 20
-1498.9041212566
 10
1013.4512427121
 20
-1488.0864423273
 10
1006.191698211
 20
-1477.131734043
 10
999.0906523733
 20
-1466.0477608572
 10
992.1531382623
 20
-1454.8423788436
 10
985.3840730338
 20
-1443.5235301276
 10
978.7882544505
 20
-1432.0992372574
 10
972.3703574819
 20
-1420.5775975175
 10
966.1349309907
 20
-1408.9667771901
 10
960.0863945084
 20
-1397.2750057661
 10
954.2290351031
 20
-1385.5105701131
 10
948.5670043408
 20
-1373.6818086014
 10
943.104315343
 20
-1361.7971051939
 10
937.8448399421
 20
-1349.864883504
 10
932.7923059373
 20
-1337.893600825
 10
927.9502944523
 20
-1325.8917421357
 10
923.3222373971
 20
-1313.8678140867
 10
918.9114150355
 20
-1301.8303389705
 10
914.7209536604
 20
-1289.7878486817
 10
910.7538233775
 20
-1277.7488786696
 10
907.0128360005
 20
-1265.7219618883
 10
903.5006430581
 20
-1253.7156227488
 10
900.2197339144
 20
-1241.7383710772
 10
897.172434005
 20
-1229.798696083
 10
894.3609031881
 20
-1217.9050603423
 10
891.7871342142
 20
-1206.0658937994
 10
889.4529513136
 20
-1194.2895877923
 10
887.3600089032
 20
-1182.5844891045
 10
885.509790414
 20
-1170.9588940498
 10
883.9036072396
 20
-1159.4210425912
 10
882.542597807
 20
-1147.9791125011
 10
881.4277267695
 20
-1136.6412135651
 10
880.5597843227
 20
-1125.4153818337
 10
879.939385645
 20
-1114.3095739267
 10
879.5669704611
 20
-1103.3316613936
 10
879.4428027307
 20
-1092.4894251346
  0
SPLINE
  5
110
330
1F
100
AcDbEntity
  8
0
  6
Continuous
 62
     7
370
    25
100
AcDbSpline
210
0.0
220
0.0
230
1.0
 70
     8
 71
     3
 72
    13
 73
     9
 74
     0
 42
0.00000001
 43
0.00000001
 40
0.0
 40
0.0
 40
0.0
 40
0.0
 40
0.1915603373662936
 40
0.3831098819301709
 40
0.5749243436864842
 40
0.7670314993101429
 40
0.959189047133266
 40
1.0
 40
1.0
 40
1.0
 40
1.0
 10
1214.875599916168
 20
-875.5917255395528
 30
0.0
 10
1214.087150834306
 20
-875.6623979400983
 30
0.0
 10
1212.510297093008
 20
-875.8037387593981
 30
0.0
 10
1210.228032791664
 20
-875.4686474316352
 30
0.0
 10
1208.312583606232
 20
-874.7698483163683
 30
0.0
 10
1207.051441369357
 20
-873.746778519678
 30
0.0
 10
1206.479568861817
 20
-872.8478469216047
 30
0.0
 10
1206.596903618351
 20
-872.3344366384931
 30
0.0
 10
1206.617458084746
 20
-872.2444984588537
 30
0.0
  0
SPLINE
  5
111
330
1F
100
AcDbEntity
  8
0
  6
Continuous
 62
     7
370
    25
100
AcDbSpline
210
0.0
220
0.0
230
1.0
 70
     8
 71
     3
 72
    12
 73
     8
 74
     0
 42
0.00000001
 43
0.00000001
 40
0.0
 40
0.0
 40
0.0
 40
0.0
 40
0.1158509185179466
 40
0.3600870036096345
 40
0.6040064368153001
 40
0.847842773273415
 40
1.0
 40
1.0
 40
1.0
 40
1.0
 10
1220.45141431287
 20
-871.6144917623636
 30
0.0
 10
1220.472255404824
 20
-871.8173209996145
 30
0.0
 10
1220.537033539081
 20
-872.4477533968749
 30
0.0
 10
1219.79426178143
 20
-873.5030938313453
 30
0.0
 10
1218.349667642532
 20
-874.584665602235
 30
0.0
 10
1216.581448699028
 20
-875.2848626487993
 30
0.0
 10
1215.349114184125
 20
-875.5065456815618
 30
0.0
 10
1214.875599916168
 20
-875.5917255395527
 30
0.0
  0
SPLINE
  5
112
330
1F
100
AcDbEntity
  8
0
  6
Continuous
 62
     7
370
    25
100
AcDbSpline
210
0.0
220
0.0
230
1.0
 70
     8
 71
     3
 72
    12
 73
     8
 74
     0
 42
0.00000001
 43
0.00000001
 40
0.0
 40
0.0
 40
0.0
 40
0.0
 40
0.2145779989591712
 40
0.4291411724434696
 40
0.6440189561883974
 40
0.8589467582006594
 40
1.0
 40
1.0
 40
1.0
 40
1.0
 10
1263.069977227254
 20
-904.8603216392963
 30
0.0
 10
1262.281774714884
 20
-904.7802464418127
 30
0.0
 10
1260.705424148088
 20
-904.6201015793458
 30
0.0
 10
1258.598432223188
 20
-903.7866927904792
 30
0.0
 10
1257.024248183052
 20
-902.6243686228983
 30
0.0
 10
1256.130476353888
 20
-901.3758650277867
 30
0.0
 10
1256.135957636069
 20
-900.5669581037075
 30
0.0
 10
1256.138129528743
 20
-900.2464383852033
 30
0.0
  0
SPLINE
  5
113
330
1F
100
AcDbEntity
  8
0
  6
Continuous
 62
     7
370
    25
100
AcDbSpline
210
0.0
220
0.0
230
1.0
 70
     8
 71
     3
 72
    13
 73
     9
 74
     0
 42
0.00000001
 43
0.00000001
 40
0.0
 40
0.0
 40
0.0
 40
0.0
 40
0.0066892732119273
 40
0.2225919893384911
 40
0.437845756208107
 40
0.6524040489733058
 40
0.8666462879679833
 40
0.9999999999999999
 40
0.9999999999999999
 40
0.9999999999999999
 40
0.9999999999999999
 10
1270.036315292839
 20
-900.7568406961594
 30
0.0
 10
1270.040269586779
 20
-900.772062147356
 30
0.0
 10
1270.171852514672
 20
-901.2785705519482
 30
0.0
 10
1269.696089105266
 20
-902.2776549007102
 30
0.0
 10
1268.583047176093
 20
-903.5381111766529
 30
0.0
 10
1266.759420884638
 20
-904.4428012490695
 30
0.0
 10
1264.823089737975
 20
-904.8630224370187
 30
0.0
 10
1263.55606564538
 20
-904.8610704939674
 30
0.0
 10
1263.069977227254
 20
-904.8603216392963
 30
0.0
  0
LWPOLYLINE
  5
114
330
1F
100
AcDbEntity
  8
0
  6
Continuous
 62
     7
370
    25
100
AcDbPolyline
 90
      213
 70
   128
 43
0.0
 10
946.971500334
 20
-1131.4729124741
 10
947.0957145271
 20
-1121.8658911778
 10
947.4682480056
 20
-1112.4107226422
 10
948.0887735634
 20
-1103.1157115969
 10
948.9567461762
 20
-1093.9890221009
 10
950.07140348
 20
-1085.0386703719
 10
951.4317664415
 20
-1076.2725177453
 10
953.036640217
 20
-1067.6982637695
 10
954.8846152027
 20
-1059.3234394431
 10
956.9740682722
 20
-1051.1554006002
 10
959.3031642025
 20
-1043.2013214499
 10
961.8698572858
 20
-1035.4681882744
 10
964.6718931264
 20
-1027.9627932933
 10
967.7068106206
 20
-1020.6917286974
 10
970.9719441184
 20
-1013.6613808591
 10
974.4644257649
 20
-1006.8779247224
 10
978.1811880194
 20
-1000.34731838
 10
982.1189663492
 20
-994.0752978397
 10
986.2743020974
 20
-988.0673719863
 10
990.6435455205
 20
-982.3288177431
 10
995.222858994
 20
-976.8646754373
 10
1000.0082203835
 20
-971.6797443725
 10
1004.9954265768
 20
-966.7785786134
 10
1010.1800971762
 20
-962.1654829863
 10
1015.5576783456
 20
-957.8445092974
 10
1021.1234468104
 20
-953.8194527747
 10
1026.872514006
 20
-950.0938487338
 10
1032.7998303715
 20
-946.6709694732
 10
1038.900189785
 20
-943.5538214003
 10
1045.1682341362
 20
-940.7451423902
 10
1051.5984580327
 20
-938.2473993815
 10
1058.1852136353
 20
-936.0627862093
 10
1064.9227156189
 20
-934.1932216783
 10
1071.8050462536
 20
-932.6403478775
 10
1078.8261606027
 20
-931.4055287378
 10
1085.9798918322
 20
-930.4898488342
 10
1093.2599566267
 20
-929.894112433
 10
1100.659960709
 20
-929.6188427856
 10
1108.1734044558
 20
-929.6642816689
 10
1115.7936886068
 20
-930.0303891725
 10
1123.5141200607
 20
-930.7168437343
 10
1131.3279177543
 20
-931.7230424229
 10
1139.2282186182
 20
-933.0481014668
 10
1147.2080836051
 20
-934.6908570307
 10
1155.2605037842
 20
-936.6498662383
 10
1163.3784064975
 20
-938.9234084389
 10
1171.5546615721
 20
-941.5094867189
 10
1179.7820875826
 20
-944.4058296561
 10
1188.0534581586
 20
-947.6098933143
 10
1196.3615083323
 20
-951.118863478
 10
1204.6989409189
 20
-954.929658124
 10
1213.0584329265
 20
-959.0389301284
 10
1221.4326419877
 20
-963.4430702069
 10
1229.8142128087
 20
-968.1382100844
 10
1238.1957836296
 20
-973.1202258928
 10
1246.5699926908
 20
-978.3847417932
 10
1254.9294846984
 20
-983.9271338192
 10
1263.266917285
 20
-989.7425339385
 10
1271.5749674587
 20
-995.8258343281
 10
1279.8463380347
 20
-1002.1716918612
 10
1288.0737640452
 20
-1008.7745327998
 10
1296.2500191198
 20
-1015.6285576907
 10
1304.3679218331
 20
-1022.7277464588
 10
1312.4203420122
 20
-1030.065863695
 10
1320.4002069991
 20
-1037.6364641331
 10
1328.300507863
 20
-1045.4328983104
 10
1336.1143055566
 20
-1053.4483184083
 10
1343.8347370105
 20
-1061.6756842671
 10
1351.4550211615
 20
-1070.1077695694
 10
1358.9684649083
 20
-1078.7371681871
 10
1366.3684689906
 20
-1087.5563006867
 10
1373.6485337852
 20
-1096.557420986
 10
1380.8022650146
 20
-1105.7326231582
 10
1387.8233793637
 20
-1115.0738483757
 10
1394.7057099984
 20
-1124.5728919884
 10
1401.443211982
 20
-1134.2214107299
 10
1408.0299675846
 20
-1144.0109300459
 10
1414.4601914811
 20
-1153.9328515374
 10
1420.7282358323
 20
-1163.978460513
 10
1426.8285952458
 20
-1174.1389336434
 10
1432.7559116113
 20
-1184.4053467108
 10
1438.5049788069
 20
-1194.7686824477
 10
1444.0707472717
 20
-1205.2198384565
 10
1449.4483284411
 20
-1215.749635205
 10
1454.6329990405
 20
-1226.3488240887
 10
1459.6202052338
 20
-1237.0080955538
 10
1464.4055666233
 20
-1247.7180872747
 10
1468.9848800968
 20
-1258.4693923767
 10
1473.3541235199
 20
-1269.2525676983
 10
1477.5094592681
 20
-1280.0581420858
 10
1481.4472375979
 20
-1290.8766247115
 10
1485.1639998524
 20
-1301.6985134104
 10
1488.6564814989
 20
-1312.5143030255
 10
1491.9216149967
 20
-1323.3144937571
 10
1494.9565324909
 20
-1334.0895995061
 10
1497.7585683315
 20
-1344.8301562064
 10
1500.3252614148
 20
-1355.5267301373
 10
1502.6543573451
 20
-1366.1699262094
 10
1504.7438104146
 20
-1376.7503962162
 10
1506.5917854003
 20
-1387.2588470455
 10
1508.1966591758
 20
-1397.6860488414
 10
1509.5570221373
 20
-1408.0228431113
 10
1510.6716794411
 20
-1418.2601507697
 10
1511.5396520539
 20
-1428.3889801132
 10
1512.1601776117
 20
-1438.4004347176
 10
1512.5327110902
 20
-1448.2857212523
 10
1512.6569252833
 20
-1458.0361572032
 10
1512.5327110902
 20
-1467.6431784995
 10
1512.1601776117
 20
-1477.0983470352
 10
1511.5396520539
 20
-1486.3933580805
 10
1510.6716794411
 20
-1495.5200475765
 10
1509.5570221373
 20
-1504.4703993055
 10
1508.1966591758
 20
-1513.2365519321
 10
1506.5917854003
 20
-1521.8108059079
 10
1504.7438104146
 20
-1530.1856302343
 10
1502.6543573451
 20
-1538.3536690771
 10
1500.3252614148
 20
-1546.3077482275
 10
1497.7585683315
 20
-1554.040881403
 10
1494.9565324909
 20
-1561.5462763841
 10
1491.9216149967
 20
-1568.81734098
 10
1488.6564814989
 20
-1575.8476888183
 10
1485.1639998524
 20
-1582.631144955
 10
1481.4472375979
 20
-1589.1617512973
 10
1477.5094592681
 20
-1595.4337718377
 10
1473.3541235199
 20
-1601.4416976911
 10
1468.9848800968
 20
-1607.1802519342
 10
1464.4055666233
 20
-1612.64439424
 10
1459.6202052338
 20
-1617.8293253049
 10
1454.6329990405
 20
-1622.730491064
 10
1449.4483284411
 20
-1627.3435866911
 10
1444.0707472717
 20
-1631.6645603799
 10
1438.5049788069
 20
-1635.6896169027
 10
1432.7559116113
 20
-1639.4152209436
 10
1426.8285952458
 20
-1642.8381002041
 10
1420.7282358323
 20
-1645.9552482771
 10
1414.4601914811
 20
-1648.7639272872
 10
1408.0299675846
 20
-1651.2616702959
 10
1401.443211982
 20
-1653.446283468
 10
1394.7057099984
 20
-1655.315847999
 10
1387.8233793637
 20
-1656.8687217999
 10
1380.8022650146
 20
-1658.1035409396
 10
1373.6485337851
 20
-1659.0192208432
 10
1366.3684689906
 20
-1659.6149572444
 10
1358.9684649083
 20
-1659.8902268917
 10
1351.4550211615
 20
-1659.8447880085
 10
1343.8347370105
 20
-1659.4786805049
 10
1336.1143055566
 20
-1658.792225943
 10
1328.300507863
 20
-1657.7860272544
 10
1320.4002069991
 20
-1656.4609682106
 10
1312.4203420122
 20
-1654.8182126466
 10
1304.3679218331
 20
-1652.859203439
 10
1296.2500191198
 20
-1650.5856612385
 10
1288.0737640452
 20
-1647.9995829585
 10
1279.8463380347
 20
-1645.1032400213
 10
1271.5749674587
 20
-1641.899176363
 10
1263.266917285
 20
-1638.3902061994
 10
1254.9294846984
 20
-1634.5794115534
 10
1246.5699926908
 20
-1630.4701395489
 10
1238.1957836296
 20
-1626.0659994704
 10
1229.8142128086
 20
-1621.370859593
 10
1221.4326419877
 20
-1616.3888437846
 10
1213.0584329265
 20
-1611.1243278842
 10
1204.6989409189
 20
-1605.5819358581
 10
1196.3615083323
 20
-1599.7665357389
 10
1188.0534581586
 20
-1593.6832353493
 10
1179.7820875826
 20
-1587.3373778162
 10
1171.5546615721
 20
-1580.7345368776
 10
1163.3784064975
 20
-1573.8805119867
 10
1155.2605037842
 20
-1566.7813232186
 10
1147.2080836051
 20
-1559.4432059823
 10
1139.2282186182
 20
-1551.8726055442
 10
1131.3279177543
 20
-1544.076171367
 10
1123.5141200607
 20
-1536.0607512691
 10
1115.7936886068
 20
-1527.8333854103
 10
1108.1734044558
 20
-1519.401300108
 10
1100.659960709
 20
-1510.7719014903
 10
1093.2599566267
 20
-1501.9527689907
 10
1085.9798918322
 20
-1492.9516486914
 10
1078.8261606027
 20
-1483.7764465192
 10
1071.8050462536
 20
-1474.4352213016
 10
1064.9227156189
 20
-1464.9361776889
 10
1058.1852136353
 20
-1455.2876589474
 10
1051.5984580327
 20
-1445.4981396315
 10
1045.1682341362
 20
-1435.57621814
 10
1038.900189785
 20
-1425.5306091643
 10
1032.7998303715
 20
-1415.3701360339
 10
1026.872514006
 20
-1405.1037229665
 10
1021.1234468104
 20
-1394.7403872297
 10
1015.5576783456
 20
-1384.2892312209
 10
1010.1800971762
 20
-1373.7594344723
 10
1004.9954265768
 20
-1363.1602455887
 10
1000.0082203835
 20
-1352.5009741236
 10
995.222858994
 20
-1341.7909824027
 10
990.6435455205
 20
-1331.0396773007
 10
986.2743020974
 20
-1320.2565019791
 10
982.1189663492
 20
-1309.4509275916
 10
978.1811880194
 20
-1298.6324449658
 10
974.4644257649
 20
-1287.810556267
 10
970.9719441184
 20
-1276.9947666518
 10
967.7068106206
 20
-1266.1945759203
 10
964.6718931264
 20
-1255.4194701713
 10
961.8698572858
 20
-1244.678913471
 10
959.3031642025
 20
-1233.98233954
 10
956.9740682722
 20
-1223.339143468
 10
954.8846152027
 20
-1212.7586734612
 10
953.036640217
 20
-1202.2502226318
 10
951.4317664415
 20
-1191.8230208359
 10
950.07140348
 20
-1181.4862265661
 10
948.9567461762
 20
-1171.2489189076
 10
948.0887735634
 20
-1161.1200895642
 10
947.4682480056
 20
-1151.1086349597
 10
947.0957145271
 20
-1141.2233484251
 10
946.971500334
 20
-1131.4729124741
  0
LWPOLYLINE
  5
115
330
1F
100
AcDbEntity
  8
0
  6
Continuous
 62
     7
370
    25
100
AcDbPolyline
 90
       30
 70
   128
 43
0.0
 10
1492.4305228811
 20
-1325.0673898802
 10
1491.2096462777
 20
-1323.7946421952
 10
1483.4892148238
 20
-1315.5672763364
 10
1475.8689306728
 20
-1307.1351910341
 10
1468.355486926
 20
-1298.5057924164
 10
1460.9554828437
 20
-1289.6866599168
 10
1453.6754180492
 20
-1280.6855396175
 10
1446.5216868197
 20
-1271.5103374453
 10
1439.5005724706
 20
-1262.1691122277
 10
1432.6182418359
 20
-1252.670068615
 10
1425.8807398523
 20
-1243.0215498735
 10
1419.2939842497
 20
-1233.2320305576
 10
1412.8637603532
 20
-1223.3101090661
 10
1406.595716002
 20
-1213.2645000904
 10
1400.4953565885
 20
-1203.10402696
 10
1394.568040223
 20
-1192.8376138926
 10
1388.8189730275
 20
-1182.4742781558
 10
1383.2532045626
 20
-1172.023122147
 10
1377.8756233932
 20
-1161.4933253984
 10
1372.6909527938
 20
-1150.8941365148
 10
1367.7037466005
 20
-1140.2348650497
 10
1362.9183852111
 20
-1129.5248733288
 10
1358.3390717375
 20
-1118.7735682268
 10
1353.9698283144
 20
-1107.9903929052
 10
1349.8144925662
 20
-1097.1848185177
 10
1345.8767142364
 20
-1086.3663358919
 10
1342.1599519819
 20
-1075.5444471931
 10
1338.6674703354
 20
-1064.7286575779
 10
1335.4023368376
 20
-1053.9284668464
 10
1334.8934289532
 20
-1052.1755707233
  0
LWPOLYLINE
  5
116
330
1F
100
AcDbEntity
  8
0
  6
Continuous
 62
     7
370
    25
100
AcDbPolyline
 90
       28
 70
   128
 43
0.0
 10
1351.1995313525
 20
-652.5510014281
 10
1353.0795992508
 20
-651.5063981651
 10
1359.8486644793
 20
-648.0029458066
 10
1366.7861785903
 20
-644.8074470903
 10
1373.887224428
 20
-641.9221669146
 10
1381.1467689291
 20
-639.349150302
 10
1388.5596666901
 20
-637.0902209494
 10
1396.1206636138
 20
-635.1469799356
 10
1403.8244006339
 20
-633.5208045866
 10
1411.6654175129
 20
-632.2128474994
 10
1419.6381567126
 20
-631.2240357248
 10
1427.7369673327
 20
-630.5550701107
 10
1435.9561091165
 20
-630.2064248049
 10
1444.2897565191
 20
-630.1783469195
 10
1452.7320028366
 20
-630.4708563555
 10
1461.2768643927
 20
-631.0837457887
 10
1469.9182847795
 20
-632.0165808168
 10
1478.6501391506
 20
-633.2687002669
 10
1487.4662385619
 20
-634.8392166647
 10
1496.3603343581
 20
-636.7270168631
 10
1505.3261226021
 20
-638.9307628313
 10
1514.3572485427
 20
-641.4488926032
 10
1523.4473111186
 20
-644.2796213845
 10
1532.5898674957
 20
-647.4209428175
 10
1541.7784376335
 20
-650.8706304035
 10
1551.0065088779
 20
-654.6262390808
 10
1560.2675405773
 20
-658.6851069573
 10
1564.8546311777
 20
-660.8021556142
  0
ARC
  5
117
330
1F
100
AcDbEntity
  8
0
  6
Continuous
 62
     7
370
    25
100
AcDbCircle
 10
1366.7590558428
 20
-1078.4653624652
 30
0.0
 40
462.2818728225989
100
AcDbArc
 50
57.2058422326
 51
63.7768210102
  0
LWPOLYLINE
  5
118
330
1F
100
AcDbEntity
  8
0
  6
Continuous
 62
     7
370
    25
100
AcDbPolyline
 90
       88
 70
   128
 43
0.0
 10
1620.2532929361
 20
-691.8753421493
 10
1625.4645093329
 20
-695.320247983
 10
1634.751937474
 20
-701.6840340279
 10
1644.0129691734
 20
-708.3177257539
 10
1653.2410404178
 20
-715.216621348
 10
1662.4296105556
 20
-722.3758310263
 10
1671.5721669327
 20
-729.7902805005
 10
1680.6622295086
 20
-737.4547145735
 10
1689.6933554492
 20
-745.3637008651
 10
1698.6591436932
 20
-753.5116336617
 10
1707.5532394894
 20
-761.8927378899
 10
1716.3693389007
 20
-770.5010732094
 10
1725.1011932718
 20
-779.3305382236
 10
1733.7426136586
 20
-788.3748748041
 10
1742.2874752147
 20
-797.6276725265
 10
1750.7297215322
 20
-807.0823732135
 10
1759.0633689348
 20
-816.7322755836
 10
1767.2825107186
 20
-826.5705400007
 10
1775.3813213387
 20
-836.5901933219
 10
1783.3540605384
 20
-846.7841338397
 10
1791.1950774174
 20
-857.145136316
 10
1798.8988144375
 20
-867.6658571026
 10
1806.4598113612
 20
-878.3388393468
 10
1813.8727091222
 20
-889.1565182761
 10
1821.1322536233
 20
-900.1112265605
 10
1828.233299461
 20
-911.1951997462
 10
1835.170813572
 20
-922.4005817599
 10
1841.9398788005
 20
-933.7194304759
 10
1848.5356973838
 20
-945.1437233461
 10
1854.9535943524
 20
-956.6653630859
 10
1861.1890208436
 20
-968.2761834134
 10
1867.2375573259
 20
-979.9679548373
 10
1873.0949167312
 20
-991.7323904903
 10
1878.7569474935
 20
-1003.5611520021
 10
1884.2196364913
 20
-1015.4458554096
 10
1889.4791118922
 20
-1027.3780770995
 10
1894.531645897
 20
-1039.3493597785
 10
1899.373657382
 20
-1051.3512184677
 10
1904.0017144372
 20
-1063.3751465168
 10
1908.4125367988
 20
-1075.412621633
 10
1912.6029981739
 20
-1087.4551119218
 10
1916.5701284568
 20
-1099.4940819338
 10
1920.3111158338
 20
-1111.5209987152
 10
1923.8233087762
 20
-1123.5273378547
 10
1927.1042179199
 20
-1135.5045895263
 10
1930.1515178293
 20
-1147.4442645205
 10
1932.9630486462
 20
-1159.3379002612
 10
1935.5368176201
 20
-1171.1770668041
 10
1937.8710005207
 20
-1182.9533728112
 10
1939.9639429311
 20
-1194.6584714989
 10
1941.8141614203
 20
-1206.2840665537
 10
1943.4203445947
 20
-1217.8219180123
 10
1944.7813540273
 20
-1229.2638481023
 10
1945.8962250648
 20
-1240.6017470383
 10
1946.7641675116
 20
-1251.8275787698
 10
1947.3845661894
 20
-1262.9333866768
 10
1947.7569813732
 20
-1273.9112992099
 10
1947.8811491036
 20
-1284.7535354689
 10
1947.7569813732
 20
-1295.4524107178
 10
1947.3845661894
 20
-1306.0003418321
 10
1946.7641675116
 20
-1316.3898526726
 10
1945.8962250648
 20
-1326.6135793854
 10
1944.7813540273
 20
-1336.6642756203
 10
1943.4203445947
 20
-1346.5348176674
 10
1941.8141614203
 20
-1356.2182095062
 10
1939.9639429311
 20
-1365.7075877639
 10
1937.8710005207
 20
-1374.9962265804
 10
1935.5368176201
 20
-1384.077542375
 10
1932.9630486462
 20
-1392.9450985132
 10
1930.1515178293
 20
-1401.5926098684
 10
1927.1042179199
 20
-1410.013947277
 10
1923.8233087762
 20
-1418.2031418824
 10
1920.3111158338
 20
-1426.1543893657
 10
1916.5701284568
 20
-1433.8620540594
 10
1912.6029981739
 20
-1441.3206729424
 10
1908.4125367988
 20
-1448.5249595115
 10
1904.0017144372
 20
-1455.4698075286
 10
1899.373657382
 20
-1462.1502946401
 10
1894.531645897
 20
-1468.5616858651
 10
1889.4791118922
 20
-1474.6994369524
 10
1884.2196364913
 20
-1480.5591976004
 10
1878.7569474935
 20
-1486.1368145412
 10
1873.0949167312
 20
-1491.4283344839
 10
1867.2375573259
 20
-1496.430006917
 10
1861.1890208436
 20
-1501.1382867663
 10
1854.9535943524
 20
-1505.5498369077
 10
1848.5356973838
 20
-1509.6615305328
 10
1846.6512156242
 20
-1510.7913928237
  0
SPLINE
  5
119
330
1F
100
AcDbEntity
  8
0
  6
Continuous
 62
     7
370
    25
100
AcDbSpline
210
0.0
220
0.0
230
1.0
 70
     8
 71
     3
 72
    12
 73
     8
 74
     0
 42
0.00000001
 43
0.00000001
 40
0.0
 40
0.0
 40
0.0
 40
0.0
 40
0.214685550861912
 40
0.4293611558831951
 40
0.6442163718509157
 40
0.8588849240075226
 40
1.0
 40
1.0
 40
1.0
 40
1.0
 10
1613.804036343235
 20
-702.3293904878229
 30
0.0
 10
1613.015148670899
 20
-702.2434994704449
 30
0.0
 10
1611.437409873405
 20
-702.0717214148034
 30
0.0
 10
1609.327459283233
 20
-701.2306450144674
 30
0.0
 10
1607.751076624337
 20
-700.0698609571525
 30
0.0
 10
1606.855984638885
 20
-698.8300511916003
 30
0.0
 10
1606.860831171458
 20
-698.0322141717339
 30
0.0
 10
1606.862753460058
 20
-697.7157666941649
 30
0.0
  0
SPLINE
  5
11A
330
1F
100
AcDbEntity
  8
0
  6
Continuous
 62
     7
370
    25
100
AcDbSpline
210
0.0
220
0.0
230
1.0
 70
     8
 71
     3
 72
    13
 73
     9
 74
     0
 42
0.00000001
 43
0.00000001
 40
0.0
 40
0.0
 40
0.0
 40
0.0
 40
0.0064714639749922
 40
0.2222122606224478
 40
0.4372736276624692
 40
0.6517934113048459
 40
0.8662604118983938
 40
1.0
 40
1.0
 40
1.0
 40
1.0
 10
1620.761659459858
 20
-698.3498435331461
 30
0.0
 10
1620.765488174807
 20
-698.3643926935727
 30
0.0
 10
1620.896955707906
 20
-698.8639708170103
 30
0.0
 10
1620.422396916044
 20
-699.8431148147828
 30
0.0
 10
1619.312509580589
 20
-701.0744425878572
 30
0.0
 10
1617.492575463464
 20
-701.9496360902153
 30
0.0
 10
1615.558102613315
 20
-702.347230887494
 30
0.0
 10
1614.290788000905
 20
-702.3343411811127
 30
0.0
 10
1613.804036343235
 20
-702.3293904878229
 30
0.0
  0
SPLINE
  5
11B
330
1F
100
AcDbEntity
  8
0
  6
Continuous
 62
     7
370
    25
100
AcDbSpline
210
0.0
220
0.0
230
1.0
 70
     8
 71
     3
 72
    13
 73
     9
 74
     0
 42
0.00000001
 43
0.00000001
 40
0.0
 40
0.0
 40
0.0
 40
0.0
 40
0.1910691451223215
 40
0.3821274624150271
 40
0.5734670091322499
 40
0.7652333271925507
 40
0.9572594293959903
 40
1.0
 40
1.0
 40
1.0
 40
1.0
 10
1565.614321133838
 20
-673.0713158883786
 30
0.0
 10
1564.826811921097
 20
-673.135138684824
 30
0.0
 10
1563.251838123517
 20
-673.2627806608962
 30
0.0
 10
1560.969880498409
 20
-672.9177990044333
 30
0.0
 10
1559.052577501088
 20
-672.2184704664994
 30
0.0
 10
1557.785129453444
 20
-671.2051517263777
 30
0.0
 10
1557.207530512154
 20
-670.3140729252212
 30
0.0
 10
1557.323650305047
 20
-669.8058978087913
 30
0.0
 10
1557.344790555268
 20
-669.71338171959
 30
0.0
  0
SPLINE
  5
11C
330
1F
100
AcDbEntity
  8
0
  6
Continuous
 62
     7
370
    25
100
AcDbSpline
210
0.0
220
0.0
230
1.0
 70
     8
 71
     3
 72
    12
 73
     8
 74
     0
 42
0.00000001
 43
0.00000001
 40
0.0
 40
0.0
 40
0.0
 40
0.0
 40
0.1138397542556312
 40
0.3587829286478922
 40
0.603314138598145
 40
0.8475759395709985
 40
1.0
 40
1.0
 40
1.0
 40
1.0
 10
1571.176453565043
 20
-669.2068293283182
 30
0.0
 10
1571.197852572953
 20
-669.4026061967242
 30
0.0
 10
1571.26529473126
 20
-670.0196261355637
 30
0.0
 10
1570.528255368411
 20
-671.0497321609739
 30
0.0
 10
1569.087729676891
 20
-672.10458950056
 30
0.0
 10
1567.320529262788
 20
-672.7814828095168
 30
0.0
 10
1566.087936999464
 20
-672.9908628989673
 30
0.0
 10
1565.614321133838
 20
-673.0713158883786
 30
0.0
  0
LWPOLYLINE
  5
11D
330
1F
100
AcDbEntity
  8
0
  6
Continuous
 62
     7
370
    25
100
AcDbPolyline
 90
       29
 70
   128
 43
0.0
 10
1267.9979789927
 20
-893.0153937904
 10
1268.975300919
 20
-893.7228731203
 10
1269.6554148366
 20
-894.5381598736
 10
1270.0042169937
 20
-895.4203721681
 10
1270.0042169937
 20
-896.3252721955
 10
1269.6554148366
 20
-897.20748449
 10
1268.975300919
 20
-898.0227712432
 10
1267.9979789927
 20
-898.7302505731
 10
1266.77245606
 20
-899.294446512
 10
1265.3601849581
 20
-899.6870679194
 10
1263.8319828571
 20
-899.8884271186
 10
1262.2644801917
 20
-899.8884271186
 10
1260.7362780907
 20
-899.6870679194
 10
1259.3240069888
 20
-899.294446512
 10
1258.0984840561
 20
-898.7302505731
 10
1257.1211621298
 20
-898.0227712432
 10
1256.4410482123
 20
-897.20748449
 10
1256.0922460552
 20
-896.3252721955
 10
1256.0922460552
 20
-895.4203721681
 10
1256.4410482123
 20
-894.5381598736
 10
1257.1211621298
 20
-893.7228731203
 10
1258.0984840561
 20
-893.0153937904
 10
1259.3240069888
 20
-892.4511978516
 10
1260.7362780907
 20
-892.0585764442
 10
1262.2644801917
 20
-891.8572172449
 10
1263.8319828571
 20
-891.8572172449
 10
1265.3601849581
 20
-892.0585764442
 10
1266.77245606
 20
-892.4511978516
 10
1267.9979789927
 20
-893.0153937904
  0
LWPOLYLINE
  5
11E
330
1F
100
AcDbEntity
  8
0
  6
Continuous
 62
     7
370
    25
100
AcDbPolyline
 90
       24
 70
   128
 43
0.0
 10
1266.5837654304
 20
-893.8318019022
 10
1267.4065338746
 20
-894.458149152
 10
1267.9060669714
 20
-895.1894162288
 10
1268.0453166363
 20
-895.9713683987
 10
1267.8139553585
 20
-896.7460118465
 10
1267.2291421457
 20
-897.4558948115
 10
1266.3342499185
 20
-898.0483685216
 10
1265.1956487396
 20
-898.4794919121
 10
1263.8977834496
 20
-898.7172905334
 10
1262.5369107797
 20
-898.7441279497
 10
1261.2139604304
 20
-898.5580137526
 10
1260.0270495768
 20
-898.1727511805
 10
1259.0642059673
 20
-897.6169133961
 10
1258.3968393077
 20
-896.931724345
 10
1258.0744451301
 20
-896.1680013646
 10
1258.1209339358
 20
-895.3823862946
 10
1258.5328578628
 20
-894.6331446107
 10
1259.2796663978
 20
-893.9758441412
 10
1260.3059721682
 20
-893.4592338548
 10
1261.53565877
 20
-893.1216283732
 10
1262.8775259735
 20
-892.9880663505
 10
1264.2320536268
 20
-893.0684534709
 10
1265.4987826103
 20
-893.3568277895
 10
1266.5837654304
 20
-893.8318019022
  0
SPLINE
  5
11F
330
1F
100
AcDbEntity
  8
0
  6
Continuous
 62
     7
370
    25
100
AcDbSpline
210
0.0
220
0.0
230
1.0
 70
     8
 71
     3
 72
    12
 73
     8
 74
     0
 42
0.00000001
 43
0.00000001
 40
0.0
 40
0.0
 40
0.0
 40
0.0
 40
0.1781848112758193
 40
0.4280330409209621
 40
0.6780185455949386
 40
0.9283989322407412
 40
1.0
 40
1.0
 40
1.0
 40
1.0
 10
1259.866597406052
 20
-898.0300553463566
 30
0.0
 10
1260.176809639511
 20
-897.8827374370088
 30
0.0
 10
1260.921997092175
 20
-897.528852432621
 30
0.0
 10
1262.440743670855
 20
-897.3251561390825
 30
0.0
 10
1264.115074225392
 20
-897.4369396277519
 30
0.0
 10
1265.385179705351
 20
-897.7369815293121
 30
0.0
 10
1265.910977195664
 20
-898.0627553845917
 30
0.0
 10
1266.027902134092
 20
-898.1351997926994
 30
0.0
  0
LWPOLYLINE
  5
120
330
1F
100
AcDbEntity
  8
0
  6
Continuous
 62
     7
370
    25
100
AcDbPolyline
 90
       29
 70
   128
 43
0.0
 10
1208.6010093731
 20
-870.1559666594
 10
1207.6236874468
 20
-869.4484873294
 10
1206.9435735292
 20
-868.6332005762
 10
1206.5947713721
 20
-867.7509882817
 10
1206.5947713721
 20
-866.8460882543
 10
1206.9435735292
 20
-865.9638759598
 10
1207.6236874468
 20
-865.1485892065
 10
1208.6010093731
 20
-864.4411098766
 10
1209.8265323058
 20
-863.8769139378
 10
1211.2388034077
 20
-863.4842925304
 10
1212.7670055086
 20
-863.2829333311
 10
1214.3345081741
 20
-863.2829333311
 10
1215.862710275
 20
-863.4842925304
 10
1217.274981377
 20
-863.8769139378
 10
1218.5005043097
 20
-864.4411098766
 10
1219.477826236
 20
-865.1485892065
 10
1220.1579401535
 20
-865.9638759598
 10
1220.5067423106
 20
-866.8460882543
 10
1220.5067423106
 20
-867.7509882817
 10
1220.1579401535
 20
-868.6332005762
 10
1219.477826236
 20
-869.4484873294
 10
1218.5005043097
 20
-870.1559666594
 10
1217.274981377
 20
-870.7201625982
 10
1215.862710275
 20
-871.1127840056
 10
1214.3345081741
 20
-871.3141432048
 10
1212.7670055086
 20
-871.3141432048
 10
1211.2388034077
 20
-871.1127840056
 10
1209.8265323058
 20
-870.7201625982
 10
1208.6010093731
 20
-870.1559666594
  0
LWPOLYLINE
  5
121
330
1F
100
AcDbEntity
  8
0
  6
Continuous
 62
     7
370
    25
100
AcDbPolyline
 90
       24
 70
   128
 43
0.0
 10
1210.0152229354
 20
-869.3395585475
 10
1209.1924544912
 20
-868.7132112977
 10
1208.6929213944
 20
-867.9819442209
 10
1208.5536717295
 20
-867.199992051
 10
1208.7850330073
 20
-866.4253486032
 10
1209.3698462201
 20
-865.7154656383
 10
1210.2647384473
 20
-865.1229919282
 10
1211.4033396262
 20
-864.6918685376
 10
1212.7012049162
 20
-864.4540699163
 10
1214.0620775861
 20
-864.4272325
 10
1215.3850279354
 20
-864.6133466972
 10
1216.571938789
 20
-864.9986092692
 10
1217.5347823984
 20
-865.5544470536
 10
1218.2021490581
 20
-866.2396361047
 10
1218.5245432357
 20
-867.0033590851
 10
1218.4780544299
 20
-867.7889741551
 10
1218.066130503
 20
-868.538215839
 10
1217.319321968
 20
-869.1955163086
 10
1216.2930161976
 20
-869.712126595
 10
1215.0633295958
 20
-870.0497320766
 10
1213.7214623923
 20
-870.1832940993
 10
1212.366934739
 20
-870.1029069789
 10
1211.1002057555
 20
-869.8145326603
 10
1210.0152229354
 20
-869.3395585475
  0
SPLINE
  5
122
330
1F
100
AcDbEntity
  8
0
  6
Continuous
 62
     7
370
    25
100
AcDbSpline
210
0.0
220
0.0
230
1.0
 70
     8
 71
     3
 72
    12
 73
     8
 74
     0
 42
0.00000001
 43
0.00000001
 40
0.0
 40
0.0
 40
0.0
 40
0.0
 40
0.0018859946612255
 40
0.2871705803374322
 40
0.5730390153206506
 40
0.8597911291033117
 40
1.0
 40
1.0
 40
1.0
 40
1.0
 10
1210.933242017205
 20
-869.7414582635759
 30
0.0
 10
1210.936019533107
 20
-869.7400175667219
 30
0.0
 10
1211.35893740753
 20
-869.5206501633351
 30
0.0
 10
1212.505293397212
 20
-869.2906258090082
 30
0.0
 10
1214.162409303516
 20
-869.154936958991
 30
0.0
 10
1215.571182570332
 20
-869.2793022086278
 30
0.0
 10
1216.22322532515
 20
-869.5326899545789
 30
0.0
 10
1216.437348352101
 20
-869.6158994538858
 30
0.0
  0
LWPOLYLINE
  5
123
330
1F
100
AcDbEntity
  8
0
  6
Continuous
 62
     7
370
    25
100
AcDbPolyline
 90
       29
 70
   128
 43
0.0
 10
1608.8234475246
 20
-696.2610388411
 10
1607.8461255983
 20
-695.5535595112
 10
1607.1660116808
 20
-694.7382727579
 10
1606.8172095237
 20
-693.8560604635
 10
1606.8172095237
 20
-692.951160436
 10
1607.1660116808
 20
-692.0689481416
 10
1607.8461255983
 20
-691.2536613883
 10
1608.8234475246
 20
-690.5461820584
 10
1610.0489704573
 20
-689.9819861196
 10
1611.4612415593
 20
-689.5893647121
 10
1612.9894436602
 20
-689.3880055129
 10
1614.5569463257
 20
-689.3880055129
 10
1616.0851484266
 20
-689.5893647121
 10
1617.4974195286
 20
-689.9819861196
 10
1618.7229424613
 20
-690.5461820584
 10
1619.7002643875
 20
-691.2536613883
 10
1620.3803783051
 20
-692.0689481416
 10
1620.7291804622
 20
-692.951160436
 10
1620.7291804622
 20
-693.8560604635
 10
1620.3803783051
 20
-694.7382727579
 10
1619.7002643875
 20
-695.5535595112
 10
1618.7229424613
 20
-696.2610388411
 10
1617.4974195286
 20
-696.8252347799
 10
1616.0851484266
 20
-697.2178561873
 10
1614.5569463257
 20
-697.4192153866
 10
1612.9894436602
 20
-697.4192153866
 10
1611.4612415593
 20
-697.2178561873
 10
1610.0489704573
 20
-696.8252347799
 10
1608.8234475246
 20
-696.2610388411
  0
LWPOLYLINE
  5
124
330
1F
100
AcDbEntity
  8
0
  6
Continuous
 62
     7
370
    25
100
AcDbPolyline
 90
       24
 70
   128
 43
0.0
 10
1610.237661087
 20
-695.4446307293
 10
1609.4148926428
 20
-694.8182834795
 10
1608.915359546
 20
-694.0870164027
 10
1608.7761098811
 20
-693.3050642328
 10
1609.0074711589
 20
-692.530420785
 10
1609.5922843717
 20
-691.82053782
 10
1610.4871765989
 20
-691.2280641099
 10
1611.6257777778
 20
-690.7969407194
 10
1612.9236430678
 20
-690.5591420981
 10
1614.2845157377
 20
-690.5323046818
 10
1615.607466087
 20
-690.718418879
 10
1616.7943769406
 20
-691.103681451
 10
1617.75722055
 20
-691.6595192354
 10
1618.4245872096
 20
-692.3447082865
 10
1618.7469813872
 20
-693.1084312669
 10
1618.7004925815
 20
-693.8940463369
 10
1618.2885686546
 20
-694.6432880208
 10
1617.5417601196
 20
-695.3005884903
 10
1616.5154543492
 20
-695.8171987767
 10
1615.2857677474
 20
-696.1548042583
 10
1613.9439005439
 20
-696.288366281
 10
1612.5893728906
 20
-696.2079791606
 10
1611.3226439071
 20
-695.919604842
 10
1610.237661087
 20
-695.4446307293
  0
SPLINE
  5
125
330
1F
100
AcDbEntity
  8
0
  6
Continuous
 62
     7
370
    25
100
AcDbSpline
210
0.0
220
0.0
230
1.0
 70
     8
 71
     3
 72
    12
 73
     8
 74
     0
 42
0.00000001
 43
0.00000001
 40
0.0
 40
0.0
 40
0.0
 40
0.0
 40
0.1817765146636735
 40
0.4318232321399092
 40
0.6821979920843196
 40
0.933050006518172
 40
1.0
 40
1.0
 40
1.0
 40
1.0
 10
1610.553427207709
 20
-695.5828700281974
 30
0.0
 10
1610.868313058952
 20
-695.436648848658
 30
0.0
 10
1611.616347128647
 20
-695.0892898816714
 30
0.0
 10
1613.140480839389
 20
-694.8960300200275
 30
0.0
 10
1614.815681368433
 20
-695.017656690162
 30
0.0
 10
1616.080163489071
 20
-695.317828376905
 30
0.0
 10
1616.601673648443
 20
-695.6376775464977
 30
0.0
 10
1616.711537969312
 20
-695.7050588067983
 30
0.0
  0
LWPOLYLINE
  5
126
330
1F
100
AcDbEntity
  8
0
  6
Continuous
 62
     7
370
    25
100
AcDbPolyline
 90
       29
 70
   128
 43
0.0
 10
1569.2254677782
 20
-661.9718981446
 10
1570.2027897045
 20
-662.6793774745
 10
1570.882903622
 20
-663.4946642278
 10
1571.2317057791
 20
-664.3768765222
 10
1571.2317057791
 20
-665.2817765497
 10
1570.882903622
 20
-666.1639888441
 10
1570.2027897045
 20
-666.9792755974
 10
1569.2254677782
 20
-667.6867549273
 10
1567.9999448455
 20
-668.2509508661
 10
1566.5876737436
 20
-668.6435722735
 10
1565.0594716426
 20
-668.8449314728
 10
1563.4919689772
 20
-668.8449314728
 10
1561.9637668762
 20
-668.6435722735
 10
1560.5514957743
 20
-668.2509508661
 10
1559.3259728416
 20
-667.6867549273
 10
1558.3486509153
 20
-666.9792755974
 10
1557.6685369977
 20
-666.1639888441
 10
1557.3197348406
 20
-665.2817765497
 10
1557.3197348406
 20
-664.3768765222
 10
1557.6685369977
 20
-663.4946642278
 10
1558.3486509153
 20
-662.6793774745
 10
1559.3259728416
 20
-661.9718981446
 10
1560.5514957743
 20
-661.4077022058
 10
1561.9637668762
 20
-661.0150807983
 10
1563.4919689772
 20
-660.8137215991
 10
1565.0594716426
 20
-660.8137215991
 10
1566.5876737436
 20
-661.0150807983
 10
1567.9999448455
 20
-661.4077022058
 10
1569.2254677782
 20
-661.9718981446
  0
LWPOLYLINE
  5
127
330
1F
100
AcDbEntity
  8
0
  6
Continuous
 62
     7
370
    25
100
AcDbPolyline
 90
       24
 70
   128
 43
0.0
 10
1567.8112542158
 20
-662.7883062564
 10
1568.6340226601
 20
-663.4146535062
 10
1569.1335557569
 20
-664.145920583
 10
1569.2728054217
 20
-664.9278727529
 10
1569.041444144
 20
-665.7025162007
 10
1568.4566309312
 20
-666.4123991657
 10
1567.561738704
 20
-667.0048728757
 10
1566.423137525
 20
-667.4359962663
 10
1565.125272235
 20
-667.6737948876
 10
1563.7643995652
 20
-667.7006323039
 10
1562.4414492158
 20
-667.5145181067
 10
1561.2545383623
 20
-667.1292555347
 10
1560.2916947528
 20
-666.5734177503
 10
1559.6243280932
 20
-665.8882286992
 10
1559.3019339156
 20
-665.1245057188
 10
1559.3484227213
 20
-664.3388906488
 10
1559.7603466483
 20
-663.5896489649
 10
1560.5071551833
 20
-662.9323484953
 10
1561.5334609536
 20
-662.415738209
 10
1562.7631475555
 20
-662.0781327273
 10
1564.105014759
 20
-661.9445707046
 10
1565.4595424122
 20
-662.0249578251
 10
1566.7262713958
 20
-662.3133321436
 10
1567.8112542158
 20
-662.7883062564
  0
SPLINE
  5
128
330
1F
100
AcDbEntity
  8
0
  6
Continuous
 62
     7
370
    25
100
AcDbSpline
210
0.0
220
0.0
230
1.0
 70
     8
 71
     3
 72
    11
 73
     7
 74
     0
 42
0.00000001
 43
0.00000001
 40
0.0
 40
0.0
 40
0.0
 40
0.0
 40
0.2812977120491567
 40
0.5785517741924449
 40
0.8765913288331106
 40
1.0
 40
1.0
 40
1.0
 40
1.0
 10
1561.734488902117
 20
-667.2669217024222
 30
0.0
 10
1562.214862599687
 20
-667.1232489722555
 30
0.0
 10
1563.20285874434
 20
-666.8277538104375
 30
0.0
 10
1564.879913406275
 20
-666.7450806467078
 30
0.0
 10
1566.238704226024
 20
-666.858569787332
 30
0.0
 10
1566.861806481504
 20
-667.0971139973415
 30
0.0
 10
1567.044263582142
 20
-667.1669646270731
 30
0.0
  0
LWPOLYLINE
  5
129
330
1F
100
AcDbEntity
  8
0
  6
Continuous
 62
     1
370
    25
100
AcDbPolyline
 90
      120
 70
   128
 43
0.0
 10
1156.593438966
 20
-763.7306997123
 10
1159.8997013981
 20
-761.8722112161
 10
1166.6824277068
 20
-758.361688318
 10
1173.6339428553
 20
-755.1597405629
 10
1180.7493197643
 20
-752.2686374202
 10
1188.023515213
 20
-749.6904280395
 10
1195.4513734134
 20
-747.4269397981
 10
1203.027629665
 20
-745.4797770063
 10
1210.7469140857
 20
-743.8503197696
 10
1218.6037554186
 20
-742.5397230112
 10
1226.5925849093
 20
-741.5489156528
 10
1234.7077402531
 20
-740.8785999567
 10
1242.9434696086
 20
-740.5292510277
 10
1251.293935674
 20
-740.5011164766
 10
1259.7532198246
 20
-740.7942162444
 10
1268.3153263082
 20
-741.4083425887
 10
1276.974186494
 20
-742.3430602303
 10
1285.7236631746
 20
-743.5977066622
 10
1294.5575549157
 20
-745.1713926188
 10
1303.4696004512
 20
-747.0630027066
 10
1312.4534831215
 20
-749.2711961944
 10
1321.5028353505
 20
-751.7944079639
 10
1330.6112431586
 20
-754.6308496186
 10
1339.7722507091
 20
-757.7785107517
 10
1348.9793648835
 20
-761.2351603712
 10
1358.2260598842
 20
-764.9983484807
 10
1367.5057818595
 20
-769.0654078161
 10
1376.8119535488
 20
-773.4334557363
 10
1386.1379789447
 20
-778.0993962661
 10
1395.4772479679
 20
-783.0599222906
 10
1404.8231411523
 20
-788.3115178993
 10
1414.1690343367
 20
-793.8504608782
 10
1423.5083033599
 20
-799.6728253476
 10
1432.8343287559
 20
-805.7744845452
 10
1442.1405004452
 20
-812.1511137506
 10
1451.4202224204
 20
-818.798193351
 10
1460.6669174211
 20
-825.7110120441
 10
1469.8740315955
 20
-832.8846701779
 10
1479.035039146
 20
-840.3140832232
 10
1488.1434469541
 20
-847.9939853771
 10
1497.1927991832
 20
-855.9189332959
 10
1506.1766818535
 20
-864.0833099529
 10
1515.088727389
 20
-872.4813286194
 10
1523.92261913
 20
-881.1070369668
 10
1532.6720958106
 20
-889.9543212848
 10
1541.3309559965
 20
-899.016910815
 10
1549.89306248
 20
-908.2883821958
 10
1558.3523466307
 20
-917.7621640143
 10
1566.702812696
 20
-927.4315414649
 10
1574.9385420515
 20
-937.2896611079
 10
1583.0536973954
 20
-947.3295357274
 10
1591.0425268861
 20
-957.5440492836
 10
1598.899368219
 20
-967.9259619566
 10
1606.6186526397
 20
-978.4679152776
 10
1614.1949088912
 20
-989.1624373447
 10
1621.6227670916
 20
-1000.0019481185
 10
1628.8969625403
 20
-1010.9787647949
 10
1636.0123394493
 20
-1022.0851072505
 10
1642.9638545978
 20
-1033.3131035568
 10
1649.7465809066
 20
-1044.6547955598
 10
1656.35571093
 20
-1056.1021445206
 10
1662.7865602637
 20
-1067.6470368128
 10
1669.0345708649
 20
-1079.2812896737
 10
1675.0953142826
 20
-1090.9966570037
 10
1680.9644947967
 20
-1102.784835211
 10
1686.6379524627
 20
-1114.6374690971
 10
1692.1116660599
 20
-1126.5461577789
 10
1697.3817559419
 20
-1138.5024606428
 10
1702.4444867862
 20
-1150.4979033272
 10
1707.296270242
 20
-1162.5239837292
 10
1711.9336674729
 20
-1174.5721780307
 10
1716.353391595
 20
-1186.6339467394
 10
1720.5523100063
 20
-1198.7007407422
 10
1724.5274466066
 20
-1210.7640073638
 10
1728.2759839076
 20
-1222.8151964292
 10
1731.7952650295
 20
-1234.8457663238
 10
1735.0827955842
 20
-1246.8471900472
 10
1738.136245443
 20
-1258.8109612573
 10
1740.9534503887
 20
-1270.7286002992
 10
1743.5324136491
 20
-1282.5916602156
 10
1745.8713073123
 20
-1294.3917327333
 10
1747.9684736227
 20
-1306.1204542236
 10
1749.8224261553
 20
-1317.7695116296
 10
1751.4318508698
 20
-1329.3306483586
 10
1752.7956070419
 20
-1340.795670134
 10
1753.9127280715
 20
-1352.1564508035
 10
1754.782422168
 20
-1363.4049380985
 10
1755.4040729117
 20
-1374.5331593413
 10
1755.7772396903
 20
-1385.5332270965
 10
1755.9016580114
 20
-1396.3973447606
 10
1755.7772396903
 20
-1407.1178120888
 10
1755.4040729117
 20
-1417.6870306523
 10
1754.782422168
 20
-1428.0975092241
 10
1753.9127280715
 20
-1438.3418690887
 10
1752.7956070419
 20
-1448.4128492716
 10
1751.4318508698
 20
-1458.3033116861
 10
1749.8224261553
 20
-1468.0062461926
 10
1747.9684736227
 20
-1477.5147755669
 10
1745.8713073123
 20
-1486.8221603749
 10
1743.5324136491
 20
-1495.9218037493
 10
1740.9534503887
 20
-1504.8072560654
 10
1738.136245443
 20
-1513.4722195121
 10
1735.0827955842
 20
-1521.9105525563
 10
1731.7952650295
 20
-1530.1162742951
 10
1728.2759839076
 20
-1538.0835686956
 10
1724.5274466066
 20
-1545.8067887166
 10
1720.5523100063
 20
-1553.2804603118
 10
1716.353391595
 20
-1560.4992863089
 10
1711.9336674729
 20
-1567.4581501646
 10
1707.296270242
 20
-1574.1521195911
 10
1702.4444867862
 20
-1580.5764500517
 10
1697.3817559419
 20
-1586.726588124
 10
1692.1116660599
 20
-1592.5981747269
 10
1686.6379524627
 20
-1598.1870482105
 10
1680.9644947967
 20
-1603.4892473055
 10
1675.0953142826
 20
-1608.5010139311
 10
1669.0345708649
 20
-1613.2187958588
 10
1662.7865602637
 20
-1617.6392492296
 10
1656.35571093
 20
-1621.7592409246
 10
1653.0531027527
 20
-1623.7172125324
  0
LWPOLYLINE
  5
12A
330
1F
100
AcDbEntity
  8
0
  6
Continuous
 62
     1
370
    25
100
AcDbPolyline
 90
      120
 70
   128
 43
0.0
 10
1174.2709853051
 20
-753.5256694308
 10
1177.5773709277
 20
-751.6671098183
 10
1184.3600972365
 20
-748.1565869202
 10
1191.311612385
 20
-744.9546391651
 10
1198.426989294
 20
-742.0635360224
 10
1205.7011847427
 20
-739.4853266417
 10
1213.1290429431
 20
-737.2218384003
 10
1220.7052991946
 20
-735.2746756085
 10
1228.4245836154
 20
-733.6452183718
 10
1236.2814249482
 20
-732.3346216134
 10
1244.2702544389
 20
-731.343814255
 10
1252.3854097828
 20
-730.6734985589
 10
1260.6211391383
 20
-730.3241496299
 10
1268.9716052037
 20
-730.2960150788
 10
1277.4308893543
 20
-730.5891148466
 10
1285.9929958378
 20
-731.2032411909
 10
1294.6518560237
 20
-732.1379588325
 10
1303.4013327043
 20
-733.3926052644
 10
1312.2352244453
 20
-734.966291221
 10
1321.1472699808
 20
-736.8579013088
 10
1330.1311526512
 20
-739.0660947966
 10
1339.1805048802
 20
-741.5893065661
 10
1348.2889126883
 20
-744.4257482208
 10
1357.4499202388
 20
-747.573409354
 10
1366.6570344132
 20
-751.0300589735
 10
1375.9037294139
 20
-754.7932470829
 10
1385.1834513891
 20
-758.8603064183
 10
1394.4896230784
 20
-763.2283543385
 10
1403.8156484744
 20
-767.8942948683
 10
1413.1549174976
 20
-772.8548208928
 10
1422.500810682
 20
-778.1064165016
 10
1431.8467038664
 20
-783.6453594804
 10
1441.1859728896
 20
-789.4677239499
 10
1450.5119982855
 20
-795.5693831474
 10
1459.8181699749
 20
-801.9460123528
 10
1469.0978919501
 20
-808.5930919532
 10
1478.3445869508
 20
-815.5059106463
 10
1487.5517011252
 20
-822.6795687802
 10
1496.7127086757
 20
-830.1089818254
 10
1505.8211164838
 20
-837.7888839793
 10
1514.8704687128
 20
-845.7138318981
 10
1523.8543513832
 20
-853.8782085551
 10
1532.7663969186
 20
-862.2762272217
 10
1541.6002886597
 20
-870.901935569
 10
1550.3497653403
 20
-879.749219887
 10
1559.0086255261
 20
-888.8118094173
 10
1567.5707320097
 20
-898.083280798
 10
1576.0300161603
 20
-907.5570626166
 10
1584.3804822257
 20
-917.2264400671
 10
1592.6162115812
 20
-927.0845597101
 10
1600.731366925
 20
-937.1244343296
 10
1608.7201964157
 20
-947.3389478858
 10
1616.5770377486
 20
-957.7208605588
 10
1624.2963221694
 20
-968.2628138798
 10
1631.8725784209
 20
-978.9573359469
 10
1639.3004366213
 20
-989.7968467207
 10
1646.57463207
 20
-1000.7736633971
 10
1653.690008979
 20
-1011.8800058527
 10
1660.6415241275
 20
-1023.108002159
 10
1667.4242504362
 20
-1034.449694162
 10
1674.0333804596
 20
-1045.8970431228
 10
1680.4642297934
 20
-1057.441935415
 10
1686.7122403946
 20
-1069.0761882759
 10
1692.7729838123
 20
-1080.7915556059
 10
1698.6421643264
 20
-1092.5797338132
 10
1704.3156219923
 20
-1104.4323676994
 10
1709.7893355895
 20
-1116.3410563812
 10
1715.0594254715
 20
-1128.297359245
 10
1720.1221563159
 20
-1140.2928019294
 10
1724.9739397716
 20
-1152.3188823314
 10
1729.6113370026
 20
-1164.3670766329
 10
1734.0310611247
 20
-1176.4288453416
 10
1738.2299795359
 20
-1188.4956393444
 10
1742.2051161362
 20
-1200.558905966
 10
1745.9536534373
 20
-1212.6100950314
 10
1749.4729345592
 20
-1224.640664926
 10
1752.7604651138
 20
-1236.6420886494
 10
1755.8139149727
 20
-1248.6058598595
 10
1758.6311199184
 20
-1260.5234989015
 10
1761.2100831787
 20
-1272.3865588178
 10
1763.548976842
 20
-1284.1866313355
 10
1765.6461431523
 20
-1295.9153528258
 10
1767.5000956849
 20
-1307.5644102319
 10
1769.1095203995
 20
-1319.1255469608
 10
1770.4732765716
 20
-1330.5905687362
 10
1771.5903976012
 20
-1341.9513494057
 10
1772.4600916977
 20
-1353.1998367007
 10
1773.0817424414
 20
-1364.3280579436
 10
1773.4549092199
 20
-1375.3281256987
 10
1773.5793275411
 20
-1386.1922433628
 10
1773.4549092199
 20
-1396.912710691
 10
1773.0817424414
 20
-1407.4819292545
 10
1772.4600916977
 20
-1417.8924078264
 10
1771.5903976012
 20
-1428.1367676909
 10
1770.4732765716
 20
-1438.2077478738
 10
1769.1095203995
 20
-1448.0982102884
 10
1767.5000956849
 20
-1457.8011447948
 10
1765.6461431523
 20
-1467.3096741691
 10
1763.548976842
 20
-1476.6170589771
 10
1761.2100831787
 20
-1485.7167023515
 10
1758.6311199184
 20
-1494.6021546676
 10
1755.8139149727
 20
-1503.2671181143
 10
1752.7604651138
 20
-1511.7054511585
 10
1749.4729345592
 20
-1519.9111728973
 10
1745.9536534373
 20
-1527.8784672978
 10
1742.2051161362
 20
-1535.6016873189
 10
1738.2299795359
 20
-1543.075358914
 10
1734.0310611247
 20
-1550.2941849111
 10
1729.6113370026
 20
-1557.2530487668
 10
1724.9739397716
 20
-1563.9470181933
 10
1720.1221563159
 20
-1570.371348654
 10
1715.0594254715
 20
-1576.5214867263
 10
1709.7893355895
 20
-1582.3930733291
 10
1704.3156219923
 20
-1587.9819468127
 10
1698.6421643264
 20
-1593.2841459077
 10
1692.7729838123
 20
-1598.2959125334
 10
1686.7122403946
 20
-1603.013694461
 10
1680.4642297934
 20
-1607.4341478318
 10
1674.0333804596
 20
-1611.5541395268
 10
1670.7306360589
 20
-1613.5121897748
  0
ENDSEC
  0
SECTION
  2
OBJECTS
  0
DICTIONARY
  5
C
330
0
100
AcDbDictionary
281
     1
  3
ACAD_GROUP
350
D
  3
ACAD_LAYOUT
350
1A
  3
ACAD_MLINESTYLE
350
17
  3
ACAD_PLOTSETTINGS
350
19
  3
ACAD_PLOTSTYLENAME
350
E
  3
ACAD_SCALELIST
350
47
  3
DWGPROPS
350
12B
  0
DICTIONARY
  5
D
102
{ACAD_REACTORS
330
C
102
}
330
C
100
AcDbDictionary
281
     1
  0
DICTIONARY
  5
1A
102
{ACAD_REACTORS
330
C
102
}
330
C
100
AcDbDictionary
281
     1
  3
Layout1
350
1E
  3
Layout2
350
26
  3
Model
350
22
  0
DICTIONARY
  5
17
102
{ACAD_REACTORS
330
C
102
}
330
C
100
AcDbDictionary
281
     1
  3
Standard
350
18
  0
DICTIONARY
  5
19
102
{ACAD_REACTORS
330
C
102
}
330
C
100
AcDbDictionary
281
     1
  0
ACDBDICTIONARYWDFLT
  5
E
102
{ACAD_REACTORS
330
C
102
}
330
C
100
AcDbDictionary
281
     1
  3
Normal
350
F
100
AcDbDictionaryWithDefault
340
F
  0
DICTIONARY
  5
47
102
{ACAD_REACTORS
330
C
102
}
330
C
100
AcDbDictionary
281
     1
  3
A0
350
48
  3
A1
350
49
  3
A2
350
4A
  3
A3
350
4B
  3
A4
350
4C
  3
A5
350
4D
  3
A6
350
4E
  3
A7
350
4F
  3
A8
350
50
  3
A9
350
51
  3
B0
350
52
  3
B1
350
53
  3
B2
350
54
  3
B3
350
55
  3
B4
350
56
  3
B5
350
57
  3
B6
350
58
  3
B7
350
59
  3
B8
350
5A
  3
B9
350
5B
  3
C0
350
5C
  3
C1
350
5D
  3
C2
350
5E
  3
C3
350
5F
  3
C4
350
60
  3
C5
350
61
  3
C6
350
62
  3
C7
350
63
  3
C8
350
64
  3
C9
350
65
  3
D0
350
66
  3
D1
350
67
  3
D2
350
68
  0
XRECORD
  5
12B
102
{ACAD_REACTORS
330
C
102
}
330
C
100
AcDbXrecord
280
     1
  1
DWGPROPS COOKIE
  2

  3

  4

  6

  7

  8
b.kav
  9

300
=
301
=
302
=
303
=
304
=
305
=
306
=
307
=
308
=
309
=
 40
0.0
 41
2459935.585523287
 42
2459935.585523461
  1

 90
        0
  0
LAYOUT
  5
1E
102
{ACAD_REACTORS
330
1A
102
}
330
1A
100
AcDbPlotSettings
  1

  2
none_device
  4

  6

 40
0.0
 41
0.0
 42
0.0
 43
0.0
 44
0.0
 45
0.0
 46
0.0
 47
0.0
 48
0.0
 49
0.0
140
0.0
141
0.0
142
1.0
143
1.0
 70
   688
 72
     1
 73
     0
 74
     5
  7

 75
    16
147
1.0
148
0.0
149
0.0
100
AcDbLayout
  1
Layout1
 70
     1
 71
     1
 10
0.0
 20
0.0
 11
420.0
 21
297.0
 12
0.0
 22
0.0
 32
0.0
 14
1.0000000000E+20
 24
1.0000000000E+20
 34
1.0000000000E+20
 15
-1.0000000000E+20
 25
-1.0000000000E+20
 35
-1.0000000000E+20
146
0.0
 13
0.0
 23
0.0
 33
0.0
 16
1.0
 26
0.0
 36
0.0
 17
0.0
 27
1.0
 37
0.0
 76
     0
330
1B
  0
LAYOUT
  5
26
102
{ACAD_REACTORS
330
1A
102
}
330
1A
100
AcDbPlotSettings
  1

  2
none_device
  4

  6

 40
0.0
 41
0.0
 42
0.0
 43
0.0
 44
0.0
 45
0.0
 46
0.0
 47
0.0
 48
0.0
 49
0.0
140
0.0
141
0.0
142
1.0
143
1.0
 70
   688
 72
     1
 73
     0
 74
     5
  7

 75
    16
147
1.0
148
0.0
149
0.0
100
AcDbLayout
  1
Layout2
 70
     1
 71
     2
 10
0.0
 20
0.0
 11
0.0
 21
0.0
 12
0.0
 22
0.0
 32
0.0
 14
0.0
 24
0.0
 34
0.0
 15
0.0
 25
0.0
 35
0.0
146
0.0
 13
0.0
 23
0.0
 33
0.0
 16
1.0
 26
0.0
 36
0.0
 17
0.0
 27
1.0
 37
0.0
 76
     0
330
23
  0
LAYOUT
  5
22
102
{ACAD_REACTORS
330
1A
102
}
330
1A
100
AcDbPlotSettings
  1

  2
none_device
  4
Letter_(8.50_x_11.00_Inches)
  6

 40
6.35
 41
6.35
 42
6.35000508
 43
6.35000508
 44
215.9
 45
279.4
 46
0.0
 47
0.0
 48
0.0
 49
0.0
140
0.0
141
0.0
142
1.0
143
1.0
 70
  1712
 72
     1
 73
     0
 74
     0
  7

 75
     0
147
1.0
148
0.0
149
0.0
100
AcDbLayout
  1
Model
 70
     1
 71
     0
 10
0.0
 20
0.0
 11
279.4
 21
215.9
 12
0.0
 22
0.0
 32
0.0
 14
0.0
 24
0.0
 34
0.0
 15
279.4
 25
215.9
 35
0.0
146
0.0
 13
0.0
 23
0.0
 33
0.0
 16
1.0
 26
0.0
 36
0.0
 17
0.0
 27
1.0
 37
0.0
 76
     0
330
1F
331
29
  0
MLINESTYLE
  5
18
102
{ACAD_REACTORS
330
17
102
}
330
17
100
AcDbMlineStyle
  2
Standard
 70
     0
  3

 62
   256
 51
90.0
 52
90.0
 71
     2
 49
0.5
 62
   256
  6
BYLAYER
 49
-0.5
 62
   256
  6
BYLAYER
  0
ACDBPLACEHOLDER
  5
F
102
{ACAD_REACTORS
330
E
102
}
330
E
  0
SCALE
  5
48
102
{ACAD_REACTORS
330
47
102
}
330
47
100
AcDbScale
 70
     0
300
1:1
140
1.0
141
1.0
290
     1
  0
SCALE
  5
49
102
{ACAD_REACTORS
330
47
102
}
330
47
100
AcDbScale
 70
     0
300
1:2
140
1.0
141
2.0
290
     0
  0
SCALE
  5
4A
102
{ACAD_REACTORS
330
47
102
}
330
47
100
AcDbScale
 70
     0
300
1:4
140
1.0
141
4.0
290
     0
  0
SCALE
  5
4B
102
{ACAD_REACTORS
330
47
102
}
330
47
100
AcDbScale
 70
     0
300
1:5
140
1.0
141
5.0
290
     0
  0
SCALE
  5
4C
102
{ACAD_REACTORS
330
47
102
}
330
47
100
AcDbScale
 70
     0
300
1:8
140
1.0
141
8.0
290
     0
  0
SCALE
  5
4D
102
{ACAD_REACTORS
330
47
102
}
330
47
100
AcDbScale
 70
     0
300
1:10
140
1.0
141
10.0
290
     0
  0
SCALE
  5
4E
102
{ACAD_REACTORS
330
47
102
}
330
47
100
AcDbScale
 70
     0
300
1:16
140
1.0
141
16.0
290
     0
  0
SCALE
  5
4F
102
{ACAD_REACTORS
330
47
102
}
330
47
100
AcDbScale
 70
     0
300
1:20
140
1.0
141
20.0
290
     0
  0
SCALE
  5
50
102
{ACAD_REACTORS
330
47
102
}
330
47
100
AcDbScale
 70
     0
300
1:30
140
1.0
141
30.0
290
     0
  0
SCALE
  5
51
102
{ACAD_REACTORS
330
47
102
}
330
47
100
AcDbScale
 70
     0
300
1:40
140
1.0
141
40.0
290
     0
  0
SCALE
  5
52
102
{ACAD_REACTORS
330
47
102
}
330
47
100
AcDbScale
 70
     0
300
1:50
140
1.0
141
50.0
290
     0
  0
SCALE
  5
53
102
{ACAD_REACTORS
330
47
102
}
330
47
100
AcDbScale
 70
     0
300
1:100
140
1.0
141
100.0
290
     0
  0
SCALE
  5
54
102
{ACAD_REACTORS
330
47
102
}
330
47
100
AcDbScale
 70
     0
300
2:1
140
2.0
141
1.0
290
     0
  0
SCALE
  5
55
102
{ACAD_REACTORS
330
47
102
}
330
47
100
AcDbScale
 70
     0
300
4:1
140
4.0
141
1.0
290
     0
  0
SCALE
  5
56
102
{ACAD_REACTORS
330
47
102
}
330
47
100
AcDbScale
 70
     0
300
8:1
140
8.0
141
1.0
290
     0
  0
SCALE
  5
57
102
{ACAD_REACTORS
330
47
102
}
330
47
100
AcDbScale
 70
     0
300
10:1
140
10.0
141
1.0
290
     0
  0
SCALE
  5
58
102
{ACAD_REACTORS
330
47
102
}
330
47
100
AcDbScale
 70
     0
300
100:1
140
100.0
141
1.0
290
     0
  0
SCALE
  5
59
102
{ACAD_REACTORS
330
47
102
}
330
47
100
AcDbScale
 70
     0
300
1/128" = 1'-0"
140
0.0078125
141
12.0
290
     0
  0
SCALE
  5
5A
102
{ACAD_REACTORS
330
47
102
}
330
47
100
AcDbScale
 70
     0
300
1/64" = 1'-0"
140
0.015625
141
12.0
290
     0
  0
SCALE
  5
5B
102
{ACAD_REACTORS
330
47
102
}
330
47
100
AcDbScale
 70
     0
300
1/32" = 1'-0"
140
0.03125
141
12.0
290
     0
  0
SCALE
  5
5C
102
{ACAD_REACTORS
330
47
102
}
330
47
100
AcDbScale
 70
     0
300
1/16" = 1'-0"
140
0.0625
141
12.0
290
     0
  0
SCALE
  5
5D
102
{ACAD_REACTORS
330
47
102
}
330
47
100
AcDbScale
 70
     0
300
3/32" = 1'-0"
140
0.09375
141
12.0
290
     0
  0
SCALE
  5
5E
102
{ACAD_REACTORS
330
47
102
}
330
47
100
AcDbScale
 70
     0
300
1/8" = 1'-0"
140
0.125
141
12.0
290
     0
  0
SCALE
  5
5F
102
{ACAD_REACTORS
330
47
102
}
330
47
100
AcDbScale
 70
     0
300
3/16" = 1'-0"
140
0.1875
141
12.0
290
     0
  0
SCALE
  5
60
102
{ACAD_REACTORS
330
47
102
}
330
47
100
AcDbScale
 70
     0
300
1/4" = 1'-0"
140
0.25
141
12.0
290
     0
  0
SCALE
  5
61
102
{ACAD_REACTORS
330
47
102
}
330
47
100
AcDbScale
 70
     0
300
3/8" = 1'-0"
140
0.375
141
12.0
290
     0
  0
SCALE
  5
62
102
{ACAD_REACTORS
330
47
102
}
330
47
100
AcDbScale
 70
     0
300
1/2" = 1'-0"
140
0.5
141
12.0
290
     0
  0
SCALE
  5
63
102
{ACAD_REACTORS
330
47
102
}
330
47
100
AcDbScale
 70
     0
300
3/4" = 1'-0"
140
0.75
141
12.0
290
     0
  0
SCALE
  5
64
102
{ACAD_REACTORS
330
47
102
}
330
47
100
AcDbScale
 70
     0
300
1" = 1'-0"
140
1.0
141
12.0
290
     0
  0
SCALE
  5
65
102
{ACAD_REACTORS
330
47
102
}
330
47
100
AcDbScale
 70
     0
300
1-1/2" = 1'-0"
140
1.5
141
12.0
290
     0
  0
SCALE
  5
66
102
{ACAD_REACTORS
330
47
102
}
330
47
100
AcDbScale
 70
     0
300
3" = 1'-0"
140
3.0
141
12.0
290
     0
  0
SCALE
  5
67
102
{ACAD_REACTORS
330
47
102
}
330
47
100
AcDbScale
 70
     0
300
6" = 1'-0"
140
6.0
141
12.0
290
     0
  0
SCALE
  5
68
102
{ACAD_REACTORS
330
47
102
}
330
47
100
AcDbScale
 70
     0
300
1'-0" = 1'-0"
140
12.0
141
12.0
290
     0
  0
ENDSEC
  0
EOF
